Silverstein - My Heroine Acoustic tab

Tabed by: santiago

chord diagram

| G | D | B |Em | C |Em7|
  |---|---|---|---|---|---|
e | 0 | 2 | 0 | 0 | 0 | 0 |
b | 3 | 3 | 4 | 0 | 1 | 3 |
g | 0 | 2 | 4 | 0 | 0 | 0 |
d | 0 | 0 | 4 | 2 | 2 | 2 |
a | 2 | 0 | 2 | 2 | 3 | 2 |
E | 3 | 0 | 0 | 0 | 0 | 0 |


|--------------------------------------------------------||--------------------------------------------------------||--------0-------------0-------------0-----0----0--------||---9---------0---0---------0----0-------0----0-----0----||-----10---10-------10---10--------9---9----9-----9------||-0-------------8-------------10-------------------------|
|----------------------------------------------------||----------------------------------------------------||--------0-------------0-------------0-----0----0----||---9---------0---0---------0----0-------0----0-----0||-----10---10-------10---10--------9---9----9-----9--||-0-------------8-------------10---------------------|
|----------------------------------------------------||----------------------------------------------------||--------0-------------0-------------0-----0----0----||---9---------0---0---------0----0-------0----0-----0||-----10---10-------10---10--------9---9----9-----9--||-0-------------8-------------10---------------------|
The drugs begin to peak
|----------------------------------------------------||----------------------------------------------------||--------0-------------0-------------0-----0----0----||---9---------0---0---------0----0-------0----0-----0||-----10---10-------10---10--------9---9----9-----9--||-0-------------8-------------10---------------------|
A smile of joy arrives in me
|----------------------------------------||----------------------------------------||----------------------------------------||--------0------0-------------0------0---||---10-----10-----10-----9------9------9-||-8----8------8-------10---10-----10-----|
|-----------------------------------------------||-----------------------------------------------||---------------------------------12------12----||----------0-------12----------------0-------0--||----10------10-------10----10---------10-------||-12----12------12-------12----12---------------|
But sedation changes to panic and nausea
|----------------------------------------||----------------------------------------||----------------------------------------||--------0------0-------------0------0---||---10-----10-----10-----9------9------9-||-8----8------8-------10---10-----10-----|
|-----------------------------------------------||-----------------------------------------------||---------------------------------12------12----||----------0-------12----------------0-------0--||----10------10-------10----10---------10-------||-12----12------12-------12----12---------------|
C D And breath starts to shorten And heartbeats pound softer Em C D You won't try to save me! Em C D C You just want to hurt me and leave me desperate! D Em Em7 C You taught my heart, a sense I never knew I had. D Em G I can't forget, the times that I was C D Em Lost and depressed from the awful truth Em7 C How do you do it? D You're my heroine! Em C D You won't leave me alone! Em C D C Chisel my heart out of stone, I give in everytime. D Em Em7 C You taught my heart, a sense I never knew I had. D Em G I can't forget, the times that I was C D Em Lost and depressed from the awful truth Em7 C How do you do it? D G You're my heroine! B Em D C D G I bet you laugh, at the thought of me thinking for myself. (myself) B Em D C I bet you believe, that I'm better off with you than someone else.
|----------------------------------------------------||----------------------------------------------------||--------0-------------0-------------0-----0----0----||---9---------0---0---------0----0-------0----0-----0||-----10---10-------10---10--------9---9----9-----9--||-0-------------8-------------10---------------------|
Your face arrives Again
|----------------------------------------------------||----------------------------------------------------||--------0-------------0-------------0-----0----0----||---9---------0---0---------0----0-------0----0-----0||-----10---10-------10---10--------9---9----9-----9--||-0-------------8-------------10---------------------|
All hope I had become surreal
|----------------------------------------||----------------------------------------||----------------------------------------||--------0------0-------------0------0---||---10-----10-----10-----9------9------9-||-8----8------8-------10---10-----10-----|
|-----------------------------------------------||-----------------------------------------------||---------------------------------12------12----||----------0-------12----------------0-------0--||----10------10-------10----10---------10-------||-12----12------12-------12----12---------------|
But under your covers more torture than pleasure
|----------------------------------------||----------------------------------------||----------------------------------------||--------0------0-------------0------0---||---10-----10-----10-----9------9------9-||-8----8------8-------10---10-----10-----|
|-----------------------------------------------||-----------------------------------------------||---------------------------------12------12----||----------0-------12----------------0-------0--||----10------10-------10----10---------10-------||-12----12------12-------12----12---------------|
And just past your lips there's more anger than laughter
|----------------------------------------||----------------------------------------||----------------------------------------||--------0------0-------------0------0---||---10-----10-----10-----9------9------9-||-8----8------8-------10---10-----10-----|
|-----------------------------------------------||-----------------------------------------------||---------------------------------12------12----||----------0-------12----------------0-------0--||----10------10-------10----10---------10-------||-12----12------12-------12----12---------------|
Not now or forever will I ever change you
|----------------------------------------||----------------------------------------||----------------------------------------||--------0------0-------------0------0---||---10-----10-----10-----9------9------9-||-8----8------8-------10---10-----10-----|
|-----------------------------------------------||-----------------------------------------------||---------------------------------12------12----||----------0-------12----------------0-------0--||----10------10-------10----10---------10-------||-12----12------12-------12----12---------------|
I know that to go on Em D C I'll break you, my habit! D Em E7 C You taught my heart, a sense I never knew I had. D Em G I can't forget, the times that I was C D Em Lost and depressed from the awful truth Em7 C How do you do it? D You're my heroine! Em C D Em (mute) I will save myself!
Tap to rate this tab
 
# A B C D E F G H I J K L M N O P Q R S T U V W X Y Z