Sing It Loud - Here With You tab

This song is in drop D tuning. If any corrections send it to andres_pollo000@hotmail.com.
tab creator: andres benavides

intro

|----------------------------------------------------------||----------------------------------------------------------||------9--------------------------------9-9-9----9-4-4-4---| x2|------9-------7--------------7---------9-9-9----9-4-4-4---||------7--7/9----9-7----7/9----9-7------7-7-7----7-2-2-2---||----------------------------------------------------------|
verse
|------------------||------------------||--9---4----2----4-| x2|--9---4----2----4-||--7---2----0----2-||------------------|
chorus
|----------------------------------------||----------------------------------------||--9---9-9-4----4-4-2----2-2-4----4-4-9--||--9---9-9-4----4-4-2----2-2-4----4-4-9--| x2|--7---7-7-2----2-2-0----0-0-2----2-2-7--||----------------------------------------|
intro
|----------------------------------------------------------||----------------------------------------------------------||------9--------------------------------9-9-9----9-4-4-4---| x2|------9-------7--------------7---------9-9-9----9-4-4-4---||------7--7/9----9-7----7/9----9-7------7-7-7----7-2-2-2---||----------------------------------------------------------|
verse
|------------------||------------------||--9---4----2----4-| x2|--9---4----2----4-||--7---2----0----2-||------------------|
chorus
|----------------------------------------||----------------------------------------||--9---9-9-4----4-4-2----2-2-4----4-4-9--||--9---9-9-4----4-4-2----2-2-4----4-4-9--| x2|--7---7-7-2----2-2-0----0-0-2----2-2-7--||----------------------------------------|
bridge
|-----------------------------------||-----------------------------------||--9-9-9-9-4-4-4-4-2-2-2-2-4-4-4-4--||--9-9-9-9-4-4-4-4-2-2-2-2-4-4-4-4--| x2|--7-7-7-7-2-2-2-2-0-0-0-0-2-2-2-2--||-----------------------------------|
|-----------------------------------||-----------------------------------||--9-9-9-9-9-9-9-9-4-4-4-4-4-4-4-4--||--9-9-9-9-9-9-9-9-4-4-4-4-4-4-4-4--| x2|--7-7-7-7-7-7-7-7-2-2-2-2-2-2-2-2--||-----------------------------------|
intro
|----------------------------------------------------------||----------------------------------------------------------||------9--------------------------------9-9-9----9-4-4-4---| x2|------9-------7--------------7---------9-9-9----9-4-4-4---||------7--7/9----9-7----7/9----9-7------7-7-7----7-2-2-2---||----------------------------------------------------------|
chorus
|----------------------------------------||----------------------------------------||--9---9-9-4----4-4-2----2-2-4----4-4-9--||--9---9-9-4----4-4-2----2-2-4----4-4-9--| x4|--7---7-7-2----2-2-0----0-0-2----2-2-7--||----------------------------------------|
outro is just like the chorus but in a slightly different rhythm
|----------------------------------------||----------------------------------------||--9---9-9-4----4-4-2----2-2-4----4-4-9--||--9---9-9-4----4-4-2----2-2-4----4-4-9--| x1|--7---7-7-2----2-2-0----0-0-2----2-2-7--||----------------------------------------|
Tap to rate this tab
 
# A B C D E F G H I J K L M N O P Q R S T U V W X Y Z