Slayer - Show No Mercy tab

Show No Mercy                                   


Kerry-Lead Guitar
                                                                                
e#||------------------|------------------|------------------|--------------|B#||------------------|------------------|------------------|--------------|G#||------------------|------------------|------------------|--------------|D#||------------------|------------------|------------------|--------------|A#||------------------|------------------|------------------|--------------|E#||------------------|------------------|------------------|--------------|
------------------|------------------|------------------|------------------|------------------|------------------|------------------|------------------|------------------|------------------|------------------|------------------|------------------|------------------|------------------|------------------|------------------|------------------|------------------|------------------|------------------|------------------|------------------|------------------|
-------------------|-------------------|------------------|----------------|-------------------|-------------------|------------------|----------------|-------------------|-------------------|------------------|----------------|--9----------------|--------------5----|------------------|----------------|--7----------------|--------------3----|------------------|--------------5-|-------------------|-------------------|------------------|--------------3-|
-------------------|-------------------|----------------------------------|-------------------|-------------------|----------------------------------|-------------------|-------------------|----------------------------------|-------------------|-------------------|----------------------------------|--------------7----|----------9--------|----------------------------------|--------------5----|----------7--------|--0-0-0-0-0-0-0-0-0-0-0-0-0-0-0-0-|
----------------------------------|----------------------------------|----------------------------------|----------------------------------|----------------------------------|----------------------------------|------------------7----10----9----|----------------------------------|------------------5----8-----7----|----------------------------------|--0-0-0-0-0-0-0-0-----------------|--0-0-0-0-0-0-0-0-0-0-0-0-0-0-0-0-|
----------------------------------|----------------------------------|----------------------------------|----------------------------------|----------------------------------|----------------------------------|------------------7----10----9----|----------------------------------|------------------5----8-----7----|----------------------------------|--0-0-0-0-0-0-0-0-----------------|--0-0-0-0-0-0-0-0-0-0-0-0-0-0-0-0-|
----------------------------------|----------------------------------|----------------------------------|----------------------------------|----------------------------------|----------------------------------|------------------7----10----9----|----------------------------------|------------------5----8-----7----|----------------------------------|--0-0-0-0-0-0-0-0-----------------|--0-0-0-0-0-0-0-0-0-0-0-0-0-0-0-0-|
-----------------------------------|----------------------------------|-----------------------------------|----------------------------------|-----------------------------------|----------------------------------|------------------12----11----7----|----------------------------------|------------------10----9-----5----|----------------------------------|--0-0-0-0-0-0-0-0------------------|--0-0-0-0-0-0-0-0-0-0-0-0-0-0-0-0-|
----------------------------------|----------------------------------|----------------------------------|----------------------------------|----------------------------------|----------------------------------|------------------7----10----9----|----------------------------------|------------------5----8-----7----|----------------------------------|--0-0-0-0-0-0-0-0-----------------|--0-0-0-0-0-0-0-0-0-0-0-0-0-0-0-0-|
----------------------------------|----------------------------------|----------------------------------|----------------------------------|----------------------------------|----------------------------------|------------------7----10----9----|----------------------------------|------------------5----8-----7----|----------------------------------|--0-0-0-0-0-0-0-0-----------------|--0-0-0-0-0-0-0-0-0-0-0-0-0-0-0-0-|
----------------------------------|----------------------------------|----------------------------------|----------------------------------|----------------------------------|----------------------------------|------------------7----10----9----|----------------------------------|------------------5----8-----7----|----------------------------------|--0-0-0-0-0-0-0-0-----------------|--0-0-0-0-0-0-0-0-0-0-0-0-0-0-0-0-|
-----------------------------------|------------------------|-----------------------------------|------------------------|-----------------------------------|------------------------|------------------12----11----7----|------------------------|------------------10----9-----5----|--7--9--9----7--9--9----|--0-0-0-0-0-0-0-0------------------|--5--7--7----5--7--7----|
------------------------|------------------------|------------------------|------------------------|------------------------|------------------------|------------------------|------------------------|------------------------|------------------------|----------------7--7----|------------------------|--7--5--5----7--9--9----|--7--9--9----7--5--5----|--3--5--5----7--9--9----|--5--3--3----5--7--7----|--5--7--7----5----------|--1--3--3----5--7--7----|
------------------------|------------------------|------------------------|------------------------|------------------------|------------------------|------------------------|------------------------|------------------------|------------------------|------------------------|----------------7--7----|--7--9--9----7--9--9----|--7--5--5----7--9--9----|--7--9--9----7--5--5----|--5--7--7----5--7--7----|--5--3--3----5--7--7----|--5--7--7----5----------|
------------------------|----------------------------------|------------------------|----------------------------------|------------------------|----------------------------------|------------------------|----------------------------------|--3--5--5----7--9--9----|----------------------------------|--1--3--3----5--7--7----|--0-0-0-0-0-0-0-0-0-0-0-0-0-0-0-0-|
----------------------------------|----------------------------------|----------------------------------|----------------------------------|----------------------------------|----------------------------------|------------------7----10----9----|----------------------------------|------------------5----8-----7----|----------------------------------|--0-0-0-0-0-0-0-0-----------------|--0-0-0-0-0-0-0-0-0-0-0-0-0-0-0-0-|
----------------------------------|----------------------------------|----------------------------------|----------------------------------|----------------------------------|----------------------------------|------------------7----10----9----|----------------------------------|------------------5----8-----7----|----------------------------------|--0-0-0-0-0-0-0-0-----------------|--0-0-0-0-0-0-0-0-0-0-0-0-0-0-0-0-|
----------------------------------|----------------------------------|----------------------------------|----------------------------------|----------------------------------|----------------------------------|------------------7----10----9----|----------------------------------|------------------5----8-----7----|----------------------------------|--0-0-0-0-0-0-0-0-----------------|--0-0-0-0-0-0-0-0-0-0-0-0-0-0-0-0-|
-----------------------------------|----------------------------------|-----------------------------------|----------------------------------|-----------------------------------|----------------------------------|------------------12----11----7----|----------------------------------|------------------10----9-----5----|----------------------------------|--0-0-0-0-0-0-0-0------------------|--0-0-0-0-0-0-0-0-0-0-0-0-0-0-0-0-|
----------------------------------|----------------------------------|----------------------------------|----------------------------------|----------------------------------|----------------------------------|------------------7----10----9----|----------------------------------|------------------5----8-----7----|----------------------------------|--0-0-0-0-0-0-0-0-----------------|--0-0-0-0-0-0-0-0-0-0-0-0-0-0-0-0-|
----------------------------------|----------------------------------|----------------------------------|----------------------------------|----------------------------------|----------------------------------|------------------7----10----9----|----------------------------------|------------------5----8-----7----|----------------------------------|--0-0-0-0-0-0-0-0-----------------|--0-0-0-0-0-0-0-0-0-0-0-0-0-0-0-0-|
----------------------------------|----------------------------------|----------------------------------|----------------------------------|----------------------------------|----------------------------------|------------------7----10----9----|----------------------------------|------------------5----8-----7----|----------------------------------|--0-0-0-0-0-0-0-0-----------------|--0-0-0-0-0-0-0-0-0-0-0-0-0-0-0-0-|
-----------------------------------|------------------------|-----------------------------------|------------------------|-----------------------------------|------------------------|------------------12----11----7----|------------------------|------------------10----9-----5----|--7--9--9----7--9--9----|--0-0-0-0-0-0-0-0------------------|--5--7--7----5--7--7----|
------------------------|------------------------|------------------------|------------------------|------------------------|------------------------|------------------------|------------------------|------------------------|------------------------|----------------7--7----|------------------------|--7--5--5----7--9--9----|--7--9--9----7--5--5----|--3--5--5----7--9--9----|--5--3--3----5--7--7----|--5--7--7----5----------|--1--3--3----5--7--7----|
------------------------|------------------------|------------------------|------------------------|------------------------|------------------------|------------------------|------------------------|------------------------|------------------------|------------------------|----------------7--7----|--7--9--9----7--9--9----|--7--5--5----7--9--9----|--7--9--9----7--5--5----|--5--7--7----5--7--7----|--5--3--3----5--7--7----|--5--7--7----5----------|
------------------------|--------------------------------|------------------------|--20b---20b-20b-20b-20b---20b---|------------------------|--------------------------------|------------------------|--------------------------------|--3--5--5----7--9--9----|--------------------------------|--1--3--3----5--7--7----|--------------------------------|
--------------20~-------|--------17--------17--------|--20b---20b-------------|--20b------20b-------20b----|------------------------|----------------------------|------------------------|----------------------------|------------------------|----------------------------|------------------------|----------------------------|
--17----------------------------------------------|------20p-17------20p-17------20p-17--20p-17------|--------------19----------19------------------19/-|--------------------------------------------------|--------------------------------------------------|--------------------------------------------------|
--------------------------------------------------|--17/20-20-20-17h20p17/16h19p16/15h17p15/14h17p14/|--------------------------------------------------|--------------------------------------------------|--------------------------------------------------|--------------------------------------------------|
--------------------------------------------|---------------------|--13h16p13/12h15p12-------------------------|---------------------|--------------------14--12--14--12----------|------------9--------|------------------------------------14--12--|--14b----------------|--------------------------------------------|---------------------|--------------------------------------------|---------------------|
--------------------------|------------------------------------------------|--------------------------|------------------------------------------------|-----------7--------------|------------------------------------------------|--9--8--9-------9----8~---|------------------------------------------------|--------------------------|--------------------------12h-14p-12--12--14--14|--------------------------|--12h-15p-12--12--15--15------------------------|
--------------------------------------------------|--------------------------------------------------|--------------------------12--14--14--12--14--14--|--12h-14p-12--12--12--14--------------------------|--------------------------------------------------|--------------------------------------------------|
--------------------------------------------------|--------------------------------------------------|--------------------------12--14--14--12--14--14--|--12--14--14--12--14--14--------------------------|--------------------------------------------------|--------------------------------------------------|
--------------------------------------|--12--13--12--13--12--13--13b---13~---|--------------------------------------|--------------------------------------|--------------------------------------|--------------------------------------|
--------------------------------------------------|--------------------------------------------------|--------------------------------------------------|----------------------------------14--16--14--16--|------------------14--16--14--16------------------|--14--17--14--17----------------------------------|
--------------------------------------------------|------------------14h-15p-14h-15p-14h-15p-14h-15--|--14--16--14--16----------------------------------|--------------------------------------------------|--------------------------------------------------|--------------------------------------------------|
-----14h17p14----14h17p14----14h17p14----14h17p14-|--17----------17----------17----------17----------|--------------------------------------------------|--------------------------------------------------|--------------------------------------------------|--------------------------------------------------|
-----14h17p14----14h17p14-----------|--------------------------------|--17----------17----------17~-------|--------------------------------|------------------------------------|--5--------------5--------------|------------------------------------|--5--------------5--------------|------------------------------------|-----3-3-3-3-3-3----3-3-3-3-3-3-|------------------------------------|--------------------------------|
--------------------------------|--------------------------------|--------------------------------|--------------------------------|--3--------------5--------------|--5--------------5--------------|--3--------------5--------------|--5--------------5--------------|-----1-1-1-1-1-1----3-3-3-3-3-3-|-----3-3-3-3-3-3----3-3-3-3-3-3-|--------------------------------|--------------------------------|
--------------------------------|--------------------------------|--------------------------------|--------------------------------|--3--------------5--------------|--5--------------5--------------|--3--------------5--------------|--5--------------5--------------|-----1-1-1-1-1-1----3-3-3-3-3-3-|-----3-3-3-3-3-3----3-3-3-3-3-3-|--------------------------------|--------------------------------|
--------------------------------|--------------------------------|--------------------------------|--------------------------------|--3--------------5--------------|--5--------------5--------------|--3--------------5--------------|--5--------------5--------------|-----1-1-1-1-1-1----3-3-3-3-3-3-|-----3-3-3-3-3-3----3-3-3-3-3-3-|--------------------------------|--------------------------------|
--------------------------------|----------------------------------|--------------------------------|----------------------------------|--3-----------------------------|----------------------------------|--3-------------------7----9----|----------------------------------|-----1-1-1-1-1-1-2----5----7----|--0h2-2-2-2-2-2-2-5p2-2-2-2-2-2-2-|-----------------0--------------|----------------------------------|
----------------------------------|----------------------------------|----------------------------------|----------------------------------|----------------------------------|----------------------------------|----------------------------------|----------------------------------|--0h2-2-2-2-2-2-2-5p2-2-2-2-2-2-2-|--0h2-2-2-2-2-2-2-5p2-2-2-2-2-2-2-|----------------------------------|----------------------------------|
---------------------------------|----------------------------------|---------------------------------|----------------------------------|---------------------------------|----------------------------------|-----------------------7----5----|----------------------------------|--0h2-2-2-2-2-2-2-2----5----3----|--0h2-2-2-2-2-2-2-5p2-2-2-2-2-2-2-|------------------0--------------|----------------------------------|
----------------------------------|----------------------------------|----------------------------------|----------------------------------|----------------------------------|----------------------------------|----------------------------------|----------------------------------|--0h2-2-2-2-2-2-2-5p2-2-2-2-2-2-2-|--0h2-2-2-2-2-2-2-5p2-2-2-2-2-2-2-|----------------------------------|----------------------------------|
---------------------------------|----------------------------------|---------------------------------|----------------------------------|---------------------------------|----------------------------------|-----------------------7----9----|----------------------------------|--0h2-2-2-2-2-2-2-2----5----7----|--0h2-2-2-2-2-2-2-5p2-2-2-2-2-2-2-|------------------0--------------|----------------------------------|
----------------------------------|----------------------------------|----------------------------------|----------------------------------|----------------------------------|----------------------------------|----------------------------------|----------------------------------|--0h2-2-2-2-2-2-2-5p2-2-2-2-2-2-2-|--0h2-2-2-2-2-2-2-5p2-2-2-2-2-2-2-|----------------------------------|----------------------------------|
---------------------------------|----------------------------------|---------------------------------|----------------------------------|---------------------------------|----------------------------------|-----------------------7----5----|----------------------------------|--0h2-2-2-2-2-2-2-2----5----3----|--0h2-2-2-2-2-2-2-5p2-2-2-2-2-2-2-|------------------0--------------|----------------------------------|
----------------------------------|----------------------------------|----------------------------------|----------------------------------|----------------------------------|----------------------------------|----------------------------------|----------------------------------|--0h2-2-2-2-2-2-2-5p2-2-2-2-2-2-2-|--0h2-2-2-2-2-2-2-5p2-2-2-2-2-2-2-|----------------------------------|----------------------------------|
---------------------------------|----------------------------|---------------------------------|----------------------------|---------------------------------|----------------------------|-----------------------7----9----|--9--11--11----9--11--11----|--0h2-2-2-2-2-2-2-2----5----7----|--7--9---9-----7--9---9-----|------------------0--------------|----------------------------|
--------------------------|--------------------------|--------------------------|--------------------------|--------------------------|------------------9--9----|--9--7--7----9--11--11----|--9--11--11----9--7--7----|--7--5--5----7--9---9-----|--7--9---9-----7----------|--------------------------|--------------------------|
--------------------------|----------------------------|--------------------------|----------------------------|--------------------------|----------------------------|--5--7--7----9--11--11----|--9--11--11----9--11--11----|--3--5--5----7--9---9-----|--7--9---9-----7--9---9-----|--------------------------|----------------------------|
--------------------------|--------------------------|--------------------------|--------------------------|--------------------------|------------------9--9----|--9--7--7----9--11--11----|--9--11--11----9--7--7----|--7--5--5----7--9---9-----|--7--9---9-----7----------|--------------------------|--------------------------|
--------------------------|--------------------------------|--------------------------|--------------------------------|--------------------------|--5--------------5--------------|--5--7--7----9--11--11----|--5--------------5--------------|--3--5--5----7--9---9-----|-----3-3-3-3-3-3----3-3-3-3-3-3-|--------------------------|--------------------------------|
--------------------------------|--------------------------------|--------------------------------|--------------------------------|--3--------------5--------------|--5--------------5--------------|--3--------------5--------------|--5--------------5--------------|-----1-1-1-1-1-1----3-3-3-3-3-3-|-----3-3-3-3-3-3----3-3-3-3-3-3-|--------------------------------|--------------------------------|
--------------------------------|--------------------------------|--------------------------------|--------------------------------|--3-----------------------------|--5--------------5--------------|--3--------------3----7----7----|--5--------------5--------------|-----1-1-1-1-1-1-1----5----5----|-----3-3-3-3-3-3----3-3-3-3-3-3-|--------------------------------|--------------------------------|
--------------------------------|--------------------------------|--------------------------------|--------------------------------|--3--------------5--------------|--5--------------5--------------|--3--------------5--------------|--5--------------5--------------|-----1-1-1-1-1-1----3-3-3-3-3-3-|-----3-3-3-3-3-3----3-3-3-3-3-3-|--------------------------------|--------------------------------|
----------------------------|----------------------------------|----------------------------|----------------------------------|--3-------------------------|----------------------------------|--3-------------------------|--7/9-------------7/9-------------|-----1-1-1-1-1-1-2----2--2--|--5/7-------------5/7-------------|-----------------0----0--0--|------0-0-0-0-0-0-----0-0-0-0-0-0-|
------------------------------------|----------------------------------|------------------------------------|----------------------------------|------------------------------------|----------------------------------|--7/9-------------11----12----11----|--7/9-------------7/9-------------|--5/7-------------9-----10----9-----|--5/7-------------5/7-------------|------0-0-0-0-0-0-------------------|------0-0-0-0-0-0-----0-0-0-0-0-0-|
----------------------------------|----------------------------------|----------------------------------|----------------------------------|----------------------------------|----------------------------------|--7/9-----------------------------|--7/9-------------7/9-------------|--5/7-------------5----7----10----|--5/7-------------5/7-------------|------0-0-0-0-0-0-3----5----8-----|------0-0-0-0-0-0-----0-0-0-0-0-0-|
------------------------------------|----------------------------------|------------------------------------|----------------------------------|------------------------------------|----------------------------------|--7/9-------------11----12----11----|--7/9-------------7/9-------------|--5/7-------------9-----10----9-----|--5/7-------------5/7-------------|------0-0-0-0-0-0-------------------|------0-0-0-0-0-0-----0-0-0-0-0-0-|
---------------------------------|--------------------------------|---------------------------------|--------------------------------|---------------------------------|--------------------------------|--7/9------------------5----4----|-------5----4---------5----4----|--5/7-------------5----3----2----|--5----3----2----5----3----2----|------0-0-0-0-0-0-3--------------|--3--------------3--------------|
-------------------|------------------|------------------|-----------------|-------------------|------------------|------------------|-----------------|-------------------|------------------|------------------|-----------------|-------------------|------------------|------------------|-----------------|--2----------------|------------------|------------------|-----------------|--0----------------|------------------|------------------|-----------------|
------------------|------------------|------------------|------------------|------------------|------------------|------------------|------------------|------------------|------------------|------------------|------------------|------------------|------------------|------------------|------------------|------------------|------------------|------------------|------------------|------------------|------------------|------------------|------------------|
------------------|------------------||------------------|------------------||------------------|------------------||------------------|------------------||------------------|------------------||------------------|------------------||
Show No Mercy Jeff- Rhythm guitar
e#||------------------|------------------|------------------|--------------|B#||------------------|------------------|------------------|--------------|G#||------------------|------------------|------------------|--------------|D#||------------------|------------------|------------------|--------------|A#||------------------|------------------|------------------|--------------|E#||------------------|------------------|------------------|--------------|
------------------|------------------|------------------|------------------|------------------|------------------|------------------|------------------|------------------|------------------|------------------|------------------|------------------|------------------|------------------|------------------|------------------|------------------|------------------|------------------|------------------|------------------|------------------|------------------|
-------------------|-------------------|------------------|----------------|-------------------|-------------------|------------------|----------------|-------------------|-------------------|------------------|----------------|--9----------------|--------------5----|------------------|----------------|--7----------------|--------------3----|------------------|--------------5-|-------------------|-------------------|------------------|--------------3-|
-------------------|-------------------|----------------------------------|-------------------|-------------------|----------------------------------|-------------------|-------------------|----------------------------------|-------------------|-------------------|----------------------------------|--------------7----|----------9--------|----------------------------------|--------------5----|----------7--------|--0-0-0-0-0-0-0-0-0-0-0-0-0-0-0-0-|
----------------------------------|----------------------------------|----------------------------------|----------------------------------|----------------------------------|----------------------------------|------------------7----10----9----|----------------------------------|------------------5----8-----7----|----------------------------------|--0-0-0-0-0-0-0-0-----------------|--0-0-0-0-0-0-0-0-0-0-0-0-0-0-0-0-|
----------------------------------|----------------------------------|----------------------------------|----------------------------------|----------------------------------|----------------------------------|------------------7----10----9----|----------------------------------|------------------5----8-----7----|----------------------------------|--0-0-0-0-0-0-0-0-----------------|--0-0-0-0-0-0-0-0-0-0-0-0-0-0-0-0-|
----------------------------------|----------------------------------|----------------------------------|----------------------------------|----------------------------------|----------------------------------|------------------7----10----9----|----------------------------------|------------------5----8-----7----|----------------------------------|--0-0-0-0-0-0-0-0-----------------|--0-0-0-0-0-0-0-0-0-0-0-0-0-0-0-0-|
-----------------------------------|----------------------------------|-----------------------------------|----------------------------------|-----------------------------------|----------------------------------|------------------12----11----7----|----------------------------------|------------------10----9-----5----|----------------------------------|--0-0-0-0-0-0-0-0------------------|--0-0-0-0-0-0-0-0-0-0-0-0-0-0-0-0-|
----------------------------------|----------------------------------|----------------------------------|----------------------------------|----------------------------------|----------------------------------|------------------7----10----9----|----------------------------------|------------------5----8-----7----|----------------------------------|--0-0-0-0-0-0-0-0-----------------|--0-0-0-0-0-0-0-0-0-0-0-0-0-0-0-0-|
----------------------------------|----------------------------------|----------------------------------|----------------------------------|----------------------------------|----------------------------------|------------------7----10----9----|----------------------------------|------------------5----8-----7----|----------------------------------|--0-0-0-0-0-0-0-0-----------------|--0-0-0-0-0-0-0-0-0-0-0-0-0-0-0-0-|
----------------------------------|----------------------------------|----------------------------------|----------------------------------|----------------------------------|----------------------------------|------------------7----10----9----|----------------------------------|------------------5----8-----7----|----------------------------------|--0-0-0-0-0-0-0-0-----------------|--0-0-0-0-0-0-0-0-0-0-0-0-0-0-0-0-|
-----------------------------------|------------------------|-----------------------------------|------------------------|-----------------------------------|------------------------|------------------12----11----7----|------------------------|------------------10----9-----5----|--7--9--9----7--9--9----|--0-0-0-0-0-0-0-0------------------|--5--7--7----5--7--7----|
------------------------|------------------------|------------------------|------------------------|------------------------|------------------------|------------------------|------------------------|------------------------|------------------------|----------------7--7----|------------------------|--7--5--5----7--9--9----|--7--9--9----7--5--5----|--3--5--5----7--9--9----|--5--3--3----5--7--7----|--5--7--7----5----------|--1--3--3----5--7--7----|
------------------------|------------------------|------------------------|------------------------|------------------------|------------------------|------------------------|------------------------|------------------------|------------------------|------------------------|----------------7--7----|--7--9--9----7--9--9----|--7--5--5----7--9--9----|--7--9--9----7--5--5----|--5--7--7----5--7--7----|--5--3--3----5--7--7----|--5--7--7----5----------|
------------------------|----------------------------------|------------------------|----------------------------------|------------------------|----------------------------------|------------------------|----------------------------------|--3--5--5----7--9--9----|----------------------------------|--1--3--3----5--7--7----|--0-0-0-0-0-0-0-0-0-0-0-0-0-0-0-0-|
----------------------------------|----------------------------------|----------------------------------|----------------------------------|----------------------------------|----------------------------------|------------------7----10----9----|----------------------------------|------------------5----8-----7----|----------------------------------|--0-0-0-0-0-0-0-0-----------------|--0-0-0-0-0-0-0-0-0-0-0-0-0-0-0-0-|
----------------------------------|----------------------------------|----------------------------------|----------------------------------|----------------------------------|----------------------------------|------------------7----10----9----|----------------------------------|------------------5----8-----7----|----------------------------------|--0-0-0-0-0-0-0-0-----------------|--0-0-0-0-0-0-0-0-0-0-0-0-0-0-0-0-|
----------------------------------|----------------------------------|----------------------------------|----------------------------------|----------------------------------|----------------------------------|------------------7----10----9----|----------------------------------|------------------5----8-----7----|----------------------------------|--0-0-0-0-0-0-0-0-----------------|--0-0-0-0-0-0-0-0-0-0-0-0-0-0-0-0-|
-----------------------------------|----------------------------------|-----------------------------------|----------------------------------|-----------------------------------|----------------------------------|------------------12----11----7----|----------------------------------|------------------10----9-----5----|----------------------------------|--0-0-0-0-0-0-0-0------------------|--0-0-0-0-0-0-0-0-0-0-0-0-0-0-0-0-|
----------------------------------|----------------------------------|----------------------------------|----------------------------------|----------------------------------|----------------------------------|------------------7----10----9----|----------------------------------|------------------5----8-----7----|----------------------------------|--0-0-0-0-0-0-0-0-----------------|--0-0-0-0-0-0-0-0-0-0-0-0-0-0-0-0-|
----------------------------------|----------------------------------|----------------------------------|----------------------------------|----------------------------------|----------------------------------|------------------7----10----9----|----------------------------------|------------------5----8-----7----|----------------------------------|--0-0-0-0-0-0-0-0-----------------|--0-0-0-0-0-0-0-0-0-0-0-0-0-0-0-0-|
----------------------------------|----------------------------------|----------------------------------|----------------------------------|----------------------------------|----------------------------------|------------------7----10----9----|----------------------------------|------------------5----8-----7----|----------------------------------|--0-0-0-0-0-0-0-0-----------------|--0-0-0-0-0-0-0-0-0-0-0-0-0-0-0-0-|
-----------------------------------|------------------------|-----------------------------------|------------------------|-----------------------------------|------------------------|------------------12----11----7----|------------------------|------------------10----9-----5----|--7--9--9----7--9--9----|--0-0-0-0-0-0-0-0------------------|--5--7--7----5--7--7----|
------------------------|------------------------|------------------------|------------------------|------------------------|------------------------|------------------------|------------------------|------------------------|------------------------|----------------7--7----|------------------------|--7--5--5----7--9--9----|--7--9--9----7--5--5----|--3--5--5----7--9--9----|--5--3--3----5--7--7----|--5--7--7----5----------|--1--3--3----5--7--7----|
------------------------|------------------------|------------------------|------------------------|------------------------|------------------------|------------------------|------------------------|------------------------|------------------------|------------------------|----------------7--7----|--7--9--9----7--9--9----|--7--5--5----7--9--9----|--7--9--9----7--5--5----|--5--7--7----5--7--7----|--5--3--3----5--7--7----|--5--7--7----5----------|
------------------------|--------------------------------|------------------------|--------------------------------|------------------------|--------------------------------|------------------------|--9--------------9--------------|--3--5--5----7--9--9----|--7--------------7--------------|--1--3--3----5--7--7----|-----0-0-0-0-0-0----0-0-0-0-0-0-|
-----------------------------------|--------------------------------|-----------------------------------|--------------------------------|-----------------------------------|--------------------------------|--9--------------11----12----11----|--9--------------9--------------|--7--------------9-----10----9-----|--7--------------7--------------|-----0-0-0-0-0-0-------------------|-----0-0-0-0-0-0----0-0-0-0-0-0-|
---------------------------------|--------------------------------|---------------------------------|--------------------------------|---------------------------------|--------------------------------|--9------------------------------|--9--------------9--------------|--7--------------5----7----10----|--7--------------7--------------|-----0-0-0-0-0-0-3----5----8-----|-----0-0-0-0-0-0----0-0-0-0-0-0-|
-----------------------------------|--------------------------------|-----------------------------------|--------------------------------|-----------------------------------|--------------------------------|--9--------------11----12----11----|--9--------------9--------------|--7--------------9-----10----9-----|--7--------------7--------------|-----0-0-0-0-0-0-------------------|-----0-0-0-0-0-0----0-0-0-0-0-0-|
---------------------------------|--------------------------------|---------------------------------|--------------------------------|---------------------------------|--------------------------------|--9------------------------------|--9--------------9--------------|--7--------------5----7----10----|--7--------------7--------------|-----0-0-0-0-0-0-3----5----8-----|-----0-0-0-0-0-0----0-0-0-0-0-0-|
-----------------------------------|--------------------------------|-----------------------------------|--------------------------------|-----------------------------------|--------------------------------|--9--------------11----12----11----|--9--------------9--------------|--7--------------9-----10----9-----|--7--------------7--------------|-----0-0-0-0-0-0-------------------|-----0-0-0-0-0-0----0-0-0-0-0-0-|
---------------------------------|--------------------------------|---------------------------------|--------------------------------|---------------------------------|--------------------------------|--9------------------------------|--9--------------9--------------|--7--------------5----7----10----|--7--------------7--------------|-----0-0-0-0-0-0-3----5----8-----|-----0-0-0-0-0-0----0-0-0-0-0-0-|
-----------------------------------|--------------------------------|-----------------------------------|--------------------------------|-----------------------------------|--------------------------------|--9--------------11----12----11----|--9--------------9--------------|--7--------------9-----10----9-----|--7--------------7--------------|-----0-0-0-0-0-0-------------------|-----0-0-0-0-0-0----0-0-0-0-0-0-|
---------------------------------|--------------------------------|---------------------------------|--------------------------------|---------------------------------|--5--------------5--------------|--9------------------------------|--5--------------5--------------|--7--------------5----7----10----|-----3-3-3-3-3-3----3-3-3-3-3-3-|-----0-0-0-0-0-0-3----5----8-----|--------------------------------|
--------------------------------|--------------------------------|--------------------------------|--------------------------------|--3--------------5--------------|--5--------------5--------------|--3--------------5--------------|--5--------------5--------------|-----1-1-1-1-1-1----3-3-3-3-3-3-|-----3-3-3-3-3-3----3-3-3-3-3-3-|--------------------------------|--------------------------------|
--------------------------------|--------------------------------|--------------------------------|--------------------------------|--3--------------5--------------|--5--------------5--------------|--3--------------5--------------|--5--------------5--------------|-----1-1-1-1-1-1----3-3-3-3-3-3-|-----3-3-3-3-3-3----3-3-3-3-3-3-|--------------------------------|--------------------------------|
--------------------------------|--------------------------------|--------------------------------|--------------------------------|--3--------------5--------------|--5--------------5--------------|--3--------------5--------------|--5--------------5--------------|-----1-1-1-1-1-1----3-3-3-3-3-3-|-----3-3-3-3-3-3----3-3-3-3-3-3-|--------------------------------|--------------------------------|
--------------------------------|----------------------------------|--------------------------------|----------------------------------|--3-----------------------------|----------------------------------|--3-------------------7----9----|----------------------------------|-----1-1-1-1-1-1-2----5----7----|--0h2-2-2-2-2-2-2-5p2-2-2-2-2-2-2-|-----------------0--------------|----------------------------------|
----------------------------------|----------------------------------|----------------------------------|----------------------------------|----------------------------------|----------------------------------|----------------------------------|----------------------------------|--0h2-2-2-2-2-2-2-5p2-2-2-2-2-2-2-|--0h2-2-2-2-2-2-2-5p2-2-2-2-2-2-2-|----------------------------------|----------------------------------|
---------------------------------|----------------------------------|---------------------------------|----------------------------------|---------------------------------|----------------------------------|-----------------------7----5----|----------------------------------|--0h2-2-2-2-2-2-2-2----5----3----|--0h2-2-2-2-2-2-2-5p2-2-2-2-2-2-2-|------------------0--------------|----------------------------------|
----------------------------------|----------------------------------|----------------------------------|----------------------------------|----------------------------------|----------------------------------|----------------------------------|----------------------------------|--0h2-2-2-2-2-2-2-5p2-2-2-2-2-2-2-|--0h2-2-2-2-2-2-2-5p2-2-2-2-2-2-2-|----------------------------------|----------------------------------|
---------------------------------|----------------------------------|---------------------------------|----------------------------------|---------------------------------|----------------------------------|-----------------------7----9----|----------------------------------|--0h2-2-2-2-2-2-2-2----5----7----|--0h2-2-2-2-2-2-2-5p2-2-2-2-2-2-2-|------------------0--------------|----------------------------------|
----------------------------------|----------------------------------|----------------------------------|----------------------------------|----------------------------------|----------------------------------|----------------------------------|----------------------------------|--0h2-2-2-2-2-2-2-5p2-2-2-2-2-2-2-|--0h2-2-2-2-2-2-2-5p2-2-2-2-2-2-2-|----------------------------------|----------------------------------|
---------------------------------|----------------------------------|---------------------------------|----------------------------------|---------------------------------|----------------------------------|-----------------------7----5----|----------------------------------|--0h2-2-2-2-2-2-2-2----5----3----|--0h2-2-2-2-2-2-2-5p2-2-2-2-2-2-2-|------------------0--------------|----------------------------------|
----------------------------------|----------------------------------|----------------------------------|----------------------------------|----------------------------------|----------------------------------|----------------------------------|----------------------------------|--0h2-2-2-2-2-2-2-5p2-2-2-2-2-2-2-|--0h2-2-2-2-2-2-2-5p2-2-2-2-2-2-2-|----------------------------------|----------------------------------|
---------------------------------|----------------------------|---------------------------------|----------------------------|---------------------------------|----------------------------|-----------------------7----9----|--9--11--11----9--11--11----|--0h2-2-2-2-2-2-2-2----5----7----|--7--9---9-----7--9---9-----|------------------0--------------|----------------------------|
--------------------------|--------------------------|--------------------------|--------------------------|--------------------------|------------------9--9----|--9--7--7----9--11--11----|--9--11--11----9--7--7----|--7--5--5----7--9---9-----|--7--9---9-----7----------|--------------------------|--------------------------|
--------------------------|----------------------------|--------------------------|----------------------------|--------------------------|----------------------------|--5--7--7----9--11--11----|--9--11--11----9--11--11----|--3--5--5----7--9---9-----|--7--9---9-----7--9---9-----|--------------------------|----------------------------|
--------------------------|--------------------------|--------------------------|--------------------------|--------------------------|------------------9--9----|--9--7--7----9--11--11----|--9--11--11----9--7--7----|--7--5--5----7--9---9-----|--7--9---9-----7----------|--------------------------|--------------------------|
--------------------------|--------------------------------|--------------------------|--------------------------------|--------------------------|--5--------------5--------------|--5--7--7----9--11--11----|--5--------------5--------------|--3--5--5----7--9---9-----|-----3-3-3-3-3-3----3-3-3-3-3-3-|--------------------------|--------------------------------|
--------------------------------|--------------------------------|--------------------------------|--------------------------------|--3--------------5--------------|--5--------------5--------------|--3--------------5--------------|--5--------------5--------------|-----1-1-1-1-1-1----3-3-3-3-3-3-|-----3-3-3-3-3-3----3-3-3-3-3-3-|--------------------------------|--------------------------------|
--------------------------------|--------------------------------|--------------------------------|--------------------------------|--3-----------------------------|--5--------------5--------------|--3--------------3----7----7----|--5--------------5--------------|-----1-1-1-1-1-1-1----5----5----|-----3-3-3-3-3-3----3-3-3-3-3-3-|--------------------------------|--------------------------------|
--------------------------------|--------------------------------|--------------------------------|--------------------------------|--3--------------5--------------|--5--------------5--------------|--3--------------5--------------|--5--------------5--------------|-----1-1-1-1-1-1----3-3-3-3-3-3-|-----3-3-3-3-3-3----3-3-3-3-3-3-|--------------------------------|--------------------------------|
----------------------------|----------------------------------|----------------------------|----------------------------------|--3-------------------------|----------------------------------|--3-------------------------|--7/9-------------7/9-------------|-----1-1-1-1-1-1-2----2--2--|--5/7-------------5/7-------------|-----------------0----0--0--|------0-0-0-0-0-0-----0-0-0-0-0-0-|
------------------------------------|----------------------------------|------------------------------------|----------------------------------|------------------------------------|----------------------------------|--7/9-------------11----12----11----|--7/9-------------7/9-------------|--5/7-------------9-----10----9-----|--5/7-------------5/7-------------|------0-0-0-0-0-0-------------------|------0-0-0-0-0-0-----0-0-0-0-0-0-|
----------------------------------|----------------------------------|----------------------------------|----------------------------------|----------------------------------|----------------------------------|--7/9-----------------------------|--7/9-------------7/9-------------|--5/7-------------5----7----10----|--5/7-------------5/7-------------|------0-0-0-0-0-0-3----5----8-----|------0-0-0-0-0-0-----0-0-0-0-0-0-|
------------------------------------|----------------------------------|------------------------------------|----------------------------------|------------------------------------|----------------------------------|--7/9-------------11----12----11----|--7/9-------------7/9-------------|--5/7-------------9-----10----9-----|--5/7-------------5/7-------------|------0-0-0-0-0-0-------------------|------0-0-0-0-0-0-----0-0-0-0-0-0-|
---------------------------------|--------------------------------|---------------------------------|--------------------------------|---------------------------------|--------------------------------|--7/9------------------5----4----|-------5----4---------5----4----|--5/7-------------5----3----2----|--5----3----2----5----3----2----|------0-0-0-0-0-0-3--------------|--3--------------3--------------|
-------------------|------------------|------------------|-----------------|-------------------|------------------|------------------|-----------------|-------------------|------------------|------------------|-----------------|-------------------|------------------|------------------|-----------------|--2----------------|------------------|------------------|-----------------|--0----------------|------------------|------------------|-----------------|
------------------|------------------|------------------|------------------|------------------|------------------|------------------|------------------|------------------|------------------|------------------|------------------|------------------|------------------|------------------|------------------|------------------|------------------|------------------|------------------|------------------|------------------|------------------|------------------|
------------------|------------------|------------------||------------------|------------------|------------------||------------------|------------------|------------------||------------------|------------------|------------------||------------------|------------------|------------------||------------------|------------------|------------------||
Show No Mercy Tom- bass(Pick)
G#||------------------|------------------|------------------|--------------|D#||------------------|------------------|------------------|--------------|A#||------------------|------------------|------------------|--------------|E#||------------------|------------------|------------------|--------------|
------------------|------------------|------------------|------------------|------------------|------------------|------------------|------------------|------------------|------------------|------------------|------------------|------------------|------------------|------------------|------------------|
-------------------|-------------------|------------------|----------------|-------------------|-------------------|------------------|----------------|--7----------------|--------------3----|------------------|----------------|-------------------|-------------------|------------------|--------------3-|
-------------------|-------------------|--------------------------|-------------------|-------------------|--------------------------|-------------------|-------------------|--------------------------|--------------5----|----------7--------|--0--0--0--0--0--0--0--0--|
-----------------------------|--------------------------|-----------------------------|--------------------------|--------------5----8----7----|--------------------------|--0--0--0--0-----------------|--0--0--0--0--0--0--0--0--|
-----------------------------|--------------------------|-----------------------------|--------------------------|--------------5----8----7----|--------------------------|--0--0--0--0-----------------|--0--0--0--0--0--0--0--0--|
-----------------------------|--------------------------|-----------------------------|--------------------------|--------------5----8----7----|--------------------------|--0--0--0--0-----------------|--0--0--0--0--0--0--0--0--|
------------------------------|--------------------------|------------------------------|--------------------------|--------------10----9----5----|--------------------------|--0--0--0--0------------------|--0--0--0--0--0--0--0--0--|
-----------------------------|--------------------------|-----------------------------|--------------------------|--------------5----8----7----|--------------------------|--0--0--0--0-----------------|--0--0--0--0--0--0--0--0--|
-----------------------------|--------------------------|-----------------------------|--------------------------|--------------5----8----7----|--------------------------|--0--0--0--0-----------------|--0--0--0--0--0--0--0--0--|
-----------------------------|--------------------------|-----------------------------|--------------------------|--------------5----8----7----|--------------------------|--0--0--0--0-----------------|--0--0--0--0--0--0--0--0--|
------------------------------|------------------------|------------------------------|------------------------|--------------10----9----5----|--0--2--2----0--2--2----|--0--0--0--0------------------|------------------------|
----------
Tap to rate this tab
 
# A B C D E F G H I J K L M N O P Q R S T U V W X Y Z