Joker tab with lyrics by Smashing Pumpkins - Easy chords and tabs for guitar

Smashing Pumpkins – Joker tab

tuning:DbAbDbGbBbeb
this is a cover of the steve miller song


that the pumpkins did in early 1996 its pretty much the same as the steve miller virson 
there a solo at the end im not really shure how it gose it dont sound to pland out 
so make it up thats wat i do

the intro is pretty much bass and drums  i cant hear a guitar if there playing

then then theres the thingy that dose the weird thingy on the string it gose
e|-8/21---------8/16---------------------------------------------|

Chorus|---------------------------------|-------------------------------||--------0--------------1---------|------0--------------1---------||*-------0-----0----0---0-----0-0-|------0-------0----0-----------||*-------0----------------0h2-----|------0-----0------2-----------||----------0h2----3---3-----------|--------0h2-----3------2-2-0-0-||---3--3--------------------------|--3----------------------------|
3x|-----------------------------|------------------------------|||-----------------------------|--3--3--3-3--3-1--1-----------|||------0---0---0-0---0-----0--|--2--2--2-2--2-0--0------0-0-*|||--------0---0---2-----0h2----|--0--0--0-0--0-2--2--0h2-----*|||----------------3------------|---------------3--3-----------|||--3--------------------------|------------------------------||
|------------------------0-0-||---------------------------||--3--3--3-3--3-1--1--1--1-1-||---------------------------||--2--2--2-2--2-0--0--0------||*--------------------------||--0--0--0-0--0-2--2---------||*----------------------0h2-||---------------3--3---------||-----------0h2-3--3--------||----------------------------||---3--3--------------------|
Guitar Solo 1
Gtr I|---------------------------------|-----------------------------------||---------------------------------|-----------------------------------||---------------------------------|-----------------------------------||-----------------------------0h2-|---0--0----------------------------||----------------0-2---3--3-------|----------0-2--3--3-3--3--2-2------||--3-------3-(3)------------------|-------------------------------0-2-|
| Gtr II,|-13s=15-------------(15)---------|-(15)---------15s13----------------||---------------------------------|----------------------15s13--------||---------------------------------|------------------------------15---||---------------------------------|------------------------------15---||---------------------------------|-----------------------------------||---------------------------------|-----------------------------------|
|---------------------------------------------||---------------------------------------------||---------------------------------------------||-----------------------------------------0h2-||------------------------0-2---3--3-----------||-----3--3------------------------------------|
|----------------------------(15)---(15)\-----||--------------------15------(15)---(15)\-----||-15s13-----/15-(15)--------------------------||-------15/-----------------------------------||---------------------------------------------||---------------------------------------------|
PM------------|
|-------------------------------------------------||-------------------------------------------------||--------------------------------------------0--0-||--0-----0-----------------------------0h=2-------||--------------------0--2--3--3--3--3-------------||-------------------------------------------------|
| |
|-------------------------------------------------||-------------------------------------------------||-------------------------------------------------||-15s13----15s13----15s13----15s13----15-15-15-15-||-------15-------15-------15-------15-------------||-------------------------------------------------|
|----------------------------------------||----------------------------------------||----------------------------------------||-----------------------------------0h=2-||--------------0-2---3---3---------------||---3---3--------------------------------|
| |
|---------(15)-----(15)-15s13s15---------||------15------------------------15------||-(15)--------------------------------14s||----------------------------------------||----------------------------------------||----------------------------------------|
PM------------|
|-------------------------------------------|||-------------------------------------------|||--------------------------------------0--0-|||--0--0--------------------------0h=2-------|||--------------0--2--3--3--3--3-------------|||-------------------------------------------||
| |
|-------------------------------------------|||-------------------------------------------|||-13----------------------------------------|||----15-15s13----15s13----15s13----15s13----|||-------------15-------15-------15-------15-|||-------------------------------------------||
Vrse 3|-----------------------------|----------------------------||-----------------------------|----------------------------||-----------------------------|----------------------------||0--0------------------------|----------------------0-2----||---------0-2-3-3-3-3-2-2-0---|----------0-2-3--3----------||---------------------------2h|--3--3----------------------|
3x|------------------------------||-----------------------------------||-----------------------------||--------0--------------1------------||-------------------------0-0-*||*-------0-----0----0---0-----0-0---||-0--0----------------0h2-----*||*-------0----------------0h2-------||--------0-2-3-3-3-3----------||----------0h2----3---3--------------||------------------------------||---3--3----------------------------|
|------------------------------|-----------------------------||-----0--------------1---------|-----------------------------||-----0-------0----0-----------|-----0---0---0--0---0-----0--||-----0----0------2------------|--------0---0---2-----0h2----||------0h2-----3------2-2-0-0--|----------------3------------||-3----------------------------|--3--------------------------|
5x|-----------------------------||------------------------0-0-||-3--3--3-3--3-1--1-----------||--3--3--3-3--3-1--1--1--1-1-||-2--2--2-2--2-0--0------0-0-*||--2--2--2-2--2-0--0--0------||-0--0--0-0--0-2--2--0h2-----*||--0--0--0-0--0-2--2---------||--------------3--3-----------||---------------3--3---------||-----------------------------||----------------------------|
|---------------------------|------------------------------||---------------------------|------------------------------||*--------------------------|------------------------------||*----------------------0h2-|--0--0------------------------||-----------0h2-3--3--------|----------0-2-3-3-3-3-2-2-0---||---3--3--------------------|----------------------------2h|
3x|--------------------------|-------------------------------|||--------------------------|-------------------------------|||--------------------------|--------------------------0-0-*|||----------------------0-2-|--0--0----------------0h2-----*|||----------0-2-3--3--------|----------0-2-3-3-3-3----------|||--3--3--------------------|-------------------------------||
Please rate this tab:
x1.0