Smashing Pumpkins - I Am One tab

                                    I AM ONE
                      As recorded by The Smashing Pumpkins
                           (From the 2025 Album GISH)

Transcribed by Scott Bunting
This is my first real attempt at tabbing a song. I have been playing for almost 2 years now.
I realize this is not 100% correct, but i get credit because its hard to decipher two guitars
who are also using wah pedals. It will sound best if you give it a personal touch.
I appreciate any feedback. E-mail me at tiamat436@hotmail.com 

Q=110 4/4 Gtr I|-----||-----||-----||-----||-----||-----|
|----------------|------------|----------0---|-(0)----||-------0-(0)----|-(0)--------|-------0------|--------||-----3----------|------------|-----3--------|--------||---4------------|------------|---4----------|--------||-4--------------|------------|-2------------|--------||-2--------------|------------|-0------------|--------|
|----------------|------------|----------0---|-(0)-----------||-------0-(0)----|-(0)--------|-------0------|---------------||-----3----------|------------|-----3--------|---------------||---4------------|------------|---4----------|---------------||-4--------------|------------|-2------------|---------------||-2--------------|------------|-0------------|---------------|
|
| Gtr II|----------------|------------|--------------|---------------||----------------|------------|--------------|---------------||----------------|------------|--------------|---------------||----------------|------------|--------------|---------------||----------------|------------|--------------|--------x\--x--||----------------|------------|--------------|--------x\--x--|
|----------------------------|----------------------------||----------------------------|----------------------------||----------------------------|----------------------------||--4-x-x--4-x--4-x-x-x--7--7-|--4-x-x--4-x--4-x-x-x--7--9-||--4-x-x--4-x--4-x-x-x--7--7-|--4-x-x--4-x--4-x-x-x--7--9-||--2-x-x--2-x--2-x-x-x--5--5-|--2-x-x--2-x--2-x-x-x--5--7-|
|
|----------------------------|----------------------------||----------------------------|----------------------------||-11-x-x-11-x-11-x-x-x-14-14-|-11-x-x-11-x-11-x-x-x-14-16-||-11-x-x-11-x-11-x-x-x-14-14-|-11-x-x-11-x-11-x-x-x-14-16-||--9-x-x--9-x--9-x-x-x-12-12-|--9-x-x--9-x--9-x-x-x-12-14-||----------------------------|----------------------------|
|----------------------------|----------------------------||----------------------------|----------------------------||----------------------------|----------------------------||--4-x-x--4-x--4-x-x-x--7--7-|--4-x-x--4-x--4-x-x-x--7--9-||--4-x-x--4-x--4-x-x-x--7--7-|--4-x-x--4-x--4-x-x-x--7--9-||--2-x-x--2-x--2-x-x-x--5--5-|--2-x-x--2-x--2-x-x-x--5--7-|
|
|----------------------------|----------------------------||----------------------------|----------------------------||-11-x-x-11-x-11-x-x-x-14-14-|-11-x-x-11-x-11-x-x-x-14-16-||-11-x-x-11-x-11-x-x-x-14-14-|-11-x-x-11-x-11-x-x-x-14-16-||--9-x-x--9-x--9-x-x-x-12-12-|--9-x-x--9-x--9-x-x-x-12-14-||----------------------------|----------------------------|
|-------------------------------|-----------------------------------||-------------------------------|-----------------------------------||-------------------------------|-----------------------------------||--4----x-x-4-x-4----x--x-x-7-7-|--4-x--x--4-----x-4------x-x-x-7-9-||--4----x-x-4-x-4----x--x-x-7-7-|--4-x--x--4-----x-4------x-x-x-7-9-||--2----x-x-2-x-2----x--x-x-5-5-|--2-x--x--2-----x-2------x-x-x-5-7-|
|
|-------------------------------|-----------------------------------||-------------------------------|-----------------------------------||-16b18-----------14------------|---------14h16---------------------||----------------------16-------|-16---16-------16---(16)-----------||-------------------------------|-----------------------------------||-------------------------------|-----------------------------------|
|----------------------------------------|-----------------------------------||----------------------------------------|-----------------------------------||----------------------------------------|-----------------------------------||--4-----x--x--4-----x----4-x--x-x--7--7-|--4-x--x--4-----x-4------x-x-x-7-9-||--4-----x--x--4-----x----4-x--x-x--7--7-|--4-x--x--4-----x-4------x-x-x-7-9-||--2-----x--x--2-----x----2-x--x-x--5--5-|--2-x--x--2-----x-2------x-x-x-5-7-|
|
|----------------------------------------|-----------------------------------||----------------------------------17-17-|-----------------------------------||-------------14h16-16b18-----18---------|---------14h16---------------------||-------14h16----------------------------|-16---16-------16---(16)-----------||-14h16----------------------------------|-----------------------------------||----------------------------------------|-----------------------------------|
||-----------------------------|----------------------------|||o----------------------------|----------------------------|||-----------------------------|----------------------------|||---4-x-x--4-x--4-x-x-x--7--7-|--4-x-x--4-x--4-x-x-x--7--9-|||o--4-x-x--4-x--4-x-x-x--7--7-|--4-x-x--4-x--4-x-x-x--7--9-|||---2-x-x--2-x--2-x-x-x--5--5-|--2-x-x--2-x--2-x-x-x--5--7-|
|
||-----------------------------|----------------------------|||o----------------------------|----------------------------|||--11-x-x-11-x-11-x-x-x-14-14-|-11-x-x-11-x-11-x-x-x-14-16-|||--11-x-x-11-x-11-x-x-x-14-14-|-11-x-x-11-x-11-x-x-x-14-16-|||o--9-x-x--9-x--9-x-x-x-12-12-|--9-x-x--9-x--9-x-x-x-12-14-|||-----------------------------|----------------------------|
|----------------------------|--------------------------------|||----------------------------|-------------------------------o|||----------------------------|--------------------------------|||--4-x-x--4-x--4-x-x-x--7--7-|--4-x-x--4-x--4-x-x-x--7--9-----|||--4-x-x--4-x--4-x-x-x--7--7-|--4-x-x--4-x--4-x-x-x--7--9----o|||--2-x-x--2-x--2-x-x-x--5--5-|--2-x-x--2-x--2-x-x-x--5--7-----||
|
|----------------------------|--------------------------------|||----------------------------|-------------------------------o|||-11-x-x-11-x-11-x-x-x-14-14-|-11-x-x-11-x-11-x-x-x-14-16-----|||-11-x-x-11-x-11-x-x-x-14-14-|-11-x-x-11-x-11-x-x-x-14-16-----|||--9-x-x--9-x--9-x-x-x-12-12-|--9-x-x--9-x--9-x-x-x-12-14----o|||----------------------------|--------------------------------||
||---------------------------------------|||o--------------------------------------|||---------------------------------------|||---------------------------------------|||o--------------------------------------|||--12-0-0-0-12-0-0-12-0-0-0-0--0-0--0-0-|
|
||---------------------------------------|||o--------------------------------------|||-----------------------------13---13---|||---------------------------------------|||o----------------------------11---11---|||---------------------------------------|
|----------------------------------------|||---------------------------------------o|||----------------------------------------|||----------------------------------------|||---------------------------------------o|||-12-0-0-0-12-0-0-12-0-0-0-0--0-0--0-0---||
|
|----------------------------------------|||---------------------------------------o|||----------------------------------------|||----------------------------12---14-----|||----------------------------12---14----o|||----------------------------------------||
|----------------|------------|----------0---|-(0)----||-------0-(0)----|-(0)--------|-------0------|--------||-----3----------|------------|-----3--------|--------||---4------------|------------|---4----------|--------||-4--------------|------------|-2------------|--------||-2--------------|------------|-0------------|--------|
|----------------|------------|----------0---|-(0)----------||-------0-(0)----|-(0)--------|-------0------|--------------||-----3----------|------------|-----3--------|--------------||---4------------|------------|---4----------|--------------||-4--------------|------------|-2------------|--------------||-2--------------|------------|-0------------|--------------|
|
| Gtr II|----------------|------------|--------------|--------------||----------------|------------|--------------|--------------||----------------|------------|--------------|--------------||----------------|------------|--------------|--------------||----------------|------------|--------------|--------x\----||----------------|------------|--------------|--------x\----|
|-----------------------------------|-------------------------||-----------------------------------|-------------------------||-----------------------------------|-------------------------||--4----x-x-4-x-4-x-x-x--7-----7----|--4-x-x-4-x-4-x-x-x--7-9-||--4----x-x-4-x-4-x-x-x--7-----7----|--4-x-x-4-x-4-x-x-x--7-9-||--2----x-x-2-x-2-x-x-x--5-----5----|--2-x-x-2-x-2-x-x-x--5-7-|
|
|-----------------------------------|-------------------------||-----------------------------------|-------------------------||-16b18-----------------16-14-------|-------------------------||-----------------------------16-14-|--------------------14---||-----------------------------------|-16----------------------||-----------------------------------|-------------------------|
|------------------------------|---------------------------||------------------------------|---------------------------||------------------------------|---------------------------||--4-----x--x--4-x-4-x-x-x-7-7-|--4----x-x-4-x-4-x-x-x-7-9-||--4-----x--x--4-x-4-x-x-x-7-7-|--4----x-x-4-x-4-x-x-x-7-9-||--2-----x--x--2-x-2-x-x-x-5-5-|--2----x-x-2-x-2-x-x-x-5-7-|
|
|------------------------------|---------------------------||------------------------------|-17b19---------------------||------------------------------|---------------------------||-14---------------------------|---------------------------||----16-14---------------------|---------------------------||----------17-17---------------|---------------------------|
||-----------------------------|----------------------------|||o----------------------------|----------------------------|||-----------------------------|----------------------------|||---4-x-x--4-x--4-x-x-x--7--7-|--4-x-x--4-x--4-x-x-x--7--9-|||o--4-x-x--4-x--4-x-x-x--7--7-|--4-x-x--4-x--4-x-x-x--7--9-|||---2-x-x--2-x--2-x-x-x--5--5-|--2-x-x--2-x--2-x-x-x--5--7-|
|
||-----------------------------|----------------------------|||o----------------------------|----------------------------|||--11-x-x-11-x-11-x-x-x-14-14-|-11-x-x-11-x-11-x-x-x-14-16-|||--11-x-x-11-x-11-x-x-x-14-14-|-11-x-x-11-x-11-x-x-x-14-16-|||o--9-x-x--9-x--9-x-x-x-12-12-|--9-x-x--9-x--9-x-x-x-12-14-|||-----------------------------|----------------------------|
|----------------------------|--------------------------------|||----------------------------|-------------------------------o|||----------------------------|--------------------------------|||--4-x-x--4-x--4-x-x-x--7--7-|--4-x-x--4-x--4-x-x-x--7--9-----|||--4-x-x--4-x--4-x-x-x--7--7-|--4-x-x--4-x--4-x-x-x--7--9----o|||--2-x-x--2-x--2-x-x-x--5--5-|--2-x-x--2-x--2-x-x-x--5--7-----||
|
|----------------------------|--------------------------------|||----------------------------|-------------------------------o|||-11-x-x-11-x-11-x-x-x-14-14-|-11-x-x-11-x-11-x-x-x-14-16-----|||-11-x-x-11-x-11-x-x-x-14-14-|-11-x-x-11-x-11-x-x-x-14-16-----|||--9-x-x--9-x--9-x-x-x-12-12-|--9-x-x--9-x--9-x-x-x-12-14----o|||----------------------------|--------------------------------||
||---------------------------------------|||o--------------------------------------|||---------------------------------------|||---------------------------------------|||o--------------------------------------|||--12-0-0-0-12-0-0-12-0-0-0-0--0-0--0-0-|
|
||---------------------------------------|||o--------------------------------------|||-----------------------------13---13---|||---------------------------------------|||o----------------------------11---11---|||---------------------------------------|
|----------------------------------------|||---------------------------------------o|||----------------------------------------|||----------------------------------------|||---------------------------------------o|||-12-0-0-0-12-0-0-12-0-0-0-0--0-0--0-0---||
|
|----------------------------------------|||---------------------------------------o|||----------------------------------------|||----------------------------12---14-----|||----------------------------12---14----o|||----------------------------------------||
||-----------------------------|----------------------------|||o----------------------------|----------------------------|||-----------------------------|----------------------------|||---4-x-x--4-x--4-x-x-x--7--7-|--4-x-x--4-x--4-x-x-x--7--9-|||o--4-x-x--4-x--4-x-x-x--7--7-|--4-x-x--4-x--4-x-x-x--7--9-|||---2-x-x--2-x--2-x-x-x--5--5-|--2-x-x--2-x--2-x-x-x--5--7-|
|
||-----------------------------|----------------------------|||o----------------------------|----------------------------|||--11-x-x-11-x-11-x-x-x-14-14-|-11-x-x-11-x-11-x-x-x-14-16-|||--11-x-x-11-x-11-x-x-x-14-14-|-11-x-x-11-x-11-x-x-x-14-16-|||o--9-x-x--9-x--9-x-x-x-12-12-|--9-x-x--9-x--9-x-x-x-12-14-|||-----------------------------|----------------------------|
|----------------------------|--------------------------------|||----------------------------|-------------------------------o|||----------------------------|--------------------------------|||--4-x-x--4-x--4-x-x-x--7--7-|--4-x-x--4-x--4-x-x-x--7--9-----|||--4-x-x--4-x--4-x-x-x--7--7-|--4-x-x--4-x--4-x-x-x--7--9----o|||--2-x-x--2-x--2-x-x-x--5--5-|--2-x-x--2-x--2-x-x-x--5--7-----||
|
|----------------------------|--------------------------------|||----------------------------|-------------------------------o|||-11-x-x-11-x-11-x-x-x-14-14-|-11-x-x-11-x-11-x-x-x-14-16-----|||-11-x-x-11-x-11-x-x-x-14-14-|-11-x-x-11-x-11-x-x-x-14-16-----|||--9-x-x--9-x--9-x-x-x-12-12-|--9-x-x--9-x--9-x-x-x-12-14----o|||----------------------------|--------------------------------||
|-------------|--------------------|--------------|------||-------------|--------------------|--------------|------||-2-----2-----|---2----------------|-2-----2------|-2----||-2---2-2-----|---2----------------|-2---2-2------|-2----||-0---2-0-----|---0----------------|-0---2-0------|-0----||-----0-------|--------------------|-----0--------|------|
|
|-------------|--------------------|--------------|------||-------------|-------7------------|--------------|------||-----7-6--7--|-7-9-----9--7h9p7-6-|-6---7-9--7---|-6----||-7-----------|--------------------|------------7-|------||-------------|--------------------|--------------|------||-------------|--------------------|--------------|------|
|-------------|--------------------|-------------|------||-------------|--------------------|-------------|------||-2-----2-----|---2----------------|-2-----2-----|-2----||-2---2-2-----|---2----------------|-2---2-2-----|-2----||-0---2-0-----|---0----------------|-0---2-0-----|-0----||-----0-------|--------------------|-----0-------|------|
|
|-------------|--------------------|-------------|------||-------------|-------7------------|----------7--|-8----||-----7-6--7--|-7-9-----9--7h9p7-6-|-6---7-9-----|------||-7-----------|--------------------|-------------|------||-------------|--------------------|-------------|------||-------------|--------------------|-------------|------|
|-------------------------------|----------------------------------------||-17b19-------------17-14-------|----------------------------------------||-------------------------16-14-|----------------------------------------||-------------------------------|-16----16-16-14-14-16----16-14-------16-||-------------------------------|-------------------------------14-16----||-------------------------------|----------------------------------------|
|
| ~~|-------------------------------|----------------------------------------||-17b19r===17b19r17-------------|----------------------------------------||-------------------16-14-------|-16b18r======16-------14-------------14-||-------------------------16-14-|-------------------16----------16-------||-------------------------------|----------------------------------------||-------------------------------|----------------------------------------|
|-------------------------------------------------|------------------------------------------------------||-------------------------------------14h17-------|------------------17b19r======17----17b19r============||-------------------------------14h16-------16p14-|-(14)-------14-16-------------------------------------||-16----------------16----14h16-------------------|------14h16-------------------------------------------||-------14----14----------------------------------|------------------------------------------------------||-------------------------------------------------|------------------------------------------------------|
|
|-------------------------------------------------|------------------------17-14----14-------------------||-------------------------17----14----------------|------------------------------17----17----14----------||-16-14-------16-14-------------------16----14----|---------------------------------------------16-14----||-------14-16-------14-16-------------------------|------------------------------------------------------||-------------------------------------------------|------------------------------------------------------||-------------------------------------------------|------------------------------------------------------|
~~~~~~ ~~~~~~|-19b21r================19----------|-21b23r=============21--||-----------------------------------|------------------------||-----------------------------------|------------------------||-----------------------------------|------------------------||-----------------------------------|------------------------||-----------------------------------|------------------------|
|
| ~~~~~~~~|-19tr17----19-17-14----------------|------------------------||--------------------17-14----------|----------------14------||--------------------------16-14----|-16----14---------------||--------------------------------16-|----------16-14---------||-----------------------------------|------------------------||-----------------------------------|------------------------|
|-------------------------|-------------------------||-17b19r===17-14----------|-17b19-------------------||----------------16-14-16-|-------------------------||-------------------------|-------------------------||-------------------------|-------------------------||-------------------------|-------------------------|
|
|~~~~~~~~~~~~~|-------------------------|-------------------------||-------------------------|-17b19r===17-14----------||-16----------------------|----------------16-14-16-||----------14-------------|-------------------------||-------------------------|-------------------------||-------------------------|-------------------------|
|-12--10--9------|---------------|-------------|-------------|------||------------12--|-10--9---------|-------------|-------------|------||----------------|--------11--9--|-7--6--------|-------------|------||----------------|---------------|-------9--7--|-6-----------|------||----------------|---------------|-------------|----9--7--4--|------||----------------|---------------|-------------|-------------|-2----|
|
|-12--10--9------|---------------|-------------|-------------|------||------------12--|-10--9---------|-------------|-------------|------||----------------|--------11--9--|-7--6--------|-------------|------||----------------|---------------|-------9--7--|-6-----------|------||----------------|---------------|-------------|----9--7--4--|------||----------------|---------------|-------------|-------------|-2----|
|-----||-----||-----||-----||-----||-----|
~~ ~~~~~~|-----------------------------|-----------17b18r===||-17b19-----------17-14-------|--------------------||-----------------------16-14-|-14-----14----------||-----------------------------|--------------------||-----------------------------|--------------------||-----------------------------|--------------------|
|
| Gtr II|-----------------------------|-14-17-----17-------||--------17b19----17-14-------|--------------------||-----------------------16-14-|--------------------||-----------------------------|--------------------||-----------------------------|--------------------||-----------------------------|--------------------|
~~~~~|-17-14-------17-14-17b19----|-(17)----17b19r17b19r17b19r17b19r=||-------17-14----------------|----------------------------------||----------------------------|----------------------------------||----------------------------|----------------------------------||----------------------------|----------------------------------||----------------------------|----------------------------------|
|
| ~~~~~|-17----------17-14-17b19----|-(17)----17b19r17b19r17b19r17b19r=||----------------------------|----------------------------------||----------------------------|----------------------------------||----------------------------|----------------------------------||----------------------------|----------------------------------||----------------------------|----------------------------------|
|-17b19r17b19r17b19r17-17-14-----------||----------------------------17-14-----||----------------------------------16--||--------------------------------------||--------------------------------------||--------------------------------------|
|
|-17b19r17b19r17b19r17-17-14-----------||----------------------------17-14-----||----------------------------------16--||--------------------------------------||--------------------------------------||--------------------------------------|
~~|-17-14-----------------------------------|-------------------------|------------||-------17-14-----------------------------|-------------------------|------------||-------------16-14-----------------14-16-|-16-------16-14----------|------------||-------------------16-14-14--14-16-------|-------14-------16-14-16-|------------||-----------------------------------------|-------------------------|------------||-----------------------------------------|-------------------------|--2S==17----|
|
| ~~|-17-14-----------------------------------|-------------------------|------------||-------17-14-----------------------------|-------------------------|------------||-------------16-14-----------------14-16-|-16-------16-14----------|------------||-------------------16-14-14--14-16-------|-------14-------16-14-16-|------------||-----------------------------------------|-------------------------|--4S==19----||-----------------------------------------|-------------------------|------------|
||--------------------------------------------|-------------------------------------------|||o-------------------------------------------|-------------------------------------------|||--------------------------------------------|-------------------------------------------|||---4----x-x--4----x--4----x-x-x--7-----7----|--4----x-x--4----x--4----x-x-x--7-----9----|||o--4----x-x--4----x--4----x-x-x--7-----7----|--4----x-x--4----x--4----x-x-x--7-----9----|||---2----x-x--2----x--2----x-x-x--5-----5----|--2----x-x--2----x--2----x-x-x--5-----7----|
|
||---9--9-x-x--9--9-x--9--9-x-x-x--9--9--9--9-|--9--9-x-x--9--9-x--9--9-x-x-x--9--9--9--9-|||o-10-10-x-x-10-10-x-10-10-x-x-x-10-10-10-10-|-10-10-x-x-10-10-x-10-10-x-x-x-10-10-10-10-|||--11-11-x-x-11-11-x-11-11-x-x-x-11-11-11-11-|-11-11-x-x-11-11-x-11-11-x-x-x-11-11-11-11-|||--------------------------------------------|-------------------------------------------|||o-------------------------------------------|-------------------------------------------|||--------------------------------------------|-------------------------------------------|
|-------------------------------------------|-----------------------------------------------|||-------------------------------------------|----------------------------------------------o|||-------------------------------------------|-----------------------------------------------|||--4----x-x--4----x--4----x-x-x--7-----7----|--4----x-x--4----x--4----x-x-x--7-----9--------|||--4----x-x--4----x--4----x-x-x--7-----7----|--4----x-x--4----x--4----x-x-x--7-----9-------o|||--2----x-x--2----x--2----x-x-x--5-----5----|--2----x-x--2----x--2----x-x-x--5-----7--------||
|
|--9--9-x-x--9--9-x--9--9-x-x-x--9--9--9--9-|--9--9-x-x--9--9-x--9--9-x-x-x--9--9--9--9-----|||-10-10-x-x-10-10-x-10-10-x-x-x-10-10-10-10-|-10-10-x-x-10-10-x-10-10-x-x-x-10-10-10-10----o|||-11-11-x-x-11-11-x-11-11-x-x-x-11-11-11-11-|-11-11-x-x-11-11-x-11-11-x-x-x-11-11-11-11-----|||-------------------------------------------|-----------------------------------------------|||-------------------------------------------|----------------------------------------------o|||-------------------------------------------|-----------------------------------------------||
|-----------|-------------|-------------|---------*||-----------|-------------|-------------|---------*||-----------|-------------|-------------|---------*||--4--------|--4---4------|--(4)--------|--(4)----*||--4--------|--4---4------|--(4)--------|--(4)----*||--2--------|--2---2------|--(2)--------|--(2)----*|
|
|-----------|-------------|-------------|---------*||-----------|-------------|-------------|---------*||-----------|-------------|-------------|---------*||-11--------|-11--11------|-(11)--------|-(11)----*||-----------|-------------|-------------|---------*||-----------|-------------|-------------|---------*|
*************************************************************************************** * Generated using Power Tab Editor by Brad Larsen - http://powertab.guitarnetwork.org * ***************************************************************************************
Tap to rate this tab
 
# A B C D E F G H I J K L M N O P Q R S T U V W X Y Z