Sod - March Of The Sod tab

Tabbed by: Ben Connelly
e-mail: ibanez64@hotmail.com

I suggest you play this song in drop-D tuning because it's easier to play and
it sounds better in my opinion. You should palm mute the open string in between
the cords.


|---------------------------------------------||---------------------------------------------||---------------------------------------------||-1--0-------3--2-------1--0-------3--2-------| x6|-1--0-------3--2-------1--0-------3--2-------||-1--0--0-0--3--2--0-0--1--0--0-0--3--2--0-0--| PM PM PM PM
|-------------------------------------------------||-------------------------------------------------||-------------------------------------------------||-2--3--6--5------8-7-6-5-2--3--6--5------8-7-6-5-| x2|-2--3--6--5------8-7-6-5-2--3--6--5------8-7-6-5-||-2--3--6--5--0-0-8-7-6-5-2--3--6--5--0-0-8-7-6-5-| PM PM
|---------------------------------------------||---------------------------------------------||---------------------------------------------||-1--0-------3--2-------1--0-------3--2-------| x2|-1--0-------3--2-------1--0-------3--2-------||-1--0--0-0--3--2--0-0--1--0--0-0--3--2--0-0--| PM PM PM PM
|-------------------------------------------------||-------------------------------------------------||-------------------------------------------------||-2--3--6--5------8-7-6-5-2--3--6--5------8-7-6-5-| x1|-2--3--6--5------8-7-6-5-2--3--6--5------8-7-6-5-||-2--3--6--5--0-0-8-7-6-5-2--3--6--5--0-0-8-7-6-5-| PM PM
|-----------------------------------------||-----------------------------------------||-----------------------------------------||-2--3--6--5------8-7-6-5-2--3--6--5------| x1|-2--3--6--5------8-7-6-5-2--3--6--5------||-2--3--6--5--0-0-8-7-6-5-2--3--6--5--0-0-| PM
|---------------------------------||---------------------------------||---------------------------------||---------------------------------| x3|---------------------------------||-8-7-6-5-7-6-5-4-6-5-4-3-5-4-3-2-| *Mute Entire Riff*
|---------------------------------||---------------------------------||---------------------------------||-8-7-6-5-7-6-5-4-6-5-4-3-5-4-3-2-| x1|-8-7-6-5-7-6-5-4-6-5-4-3-5-4-3-2-||-8-7-6-5-7-6-5-4-6-5-4-3-5-4-3-2-|
|---------------------------------------------||---------------------------------------------||---------------------------------------------||-1--0-------3--2-------1--0-------3--2-------| x2|-1--0-------3--2-------1--0-------3--2-------||-1--0--0-0--3--2--0-0--1--0--0-0--3--2--0-0--| PM PM PM PM
(*on last riff, let the final cord ring with no muted open string*)
Tap to rate this tab
 
# A B C D E F G H I J K L M N O P Q R S T U V W X Y Z