Springbok Nude Girls - Blue Eyes tab

Excellent song pretty sure everything is right just not sure 'bout the outro, but
please correct or e-mail me at binnesenter@yahoo.com
                                                        
E||---4--4----4---5--5----5---4--4----4---5--5----5----|B||---------5-----------5-----------5-----------5------|G||*--2--2--------2--2--------2--2--------2--2------2--|D||*---------------------------------------------------|A||----------------------------------------------------|E||----------------------------------------------------|
--4--4----4----5--5----5----4--4----4----5--5----5----|--------5------------5------------5------------5------|------------------------------------------------------|--4--4------4--4--4------4--4--4------4--4--4------4--|------------------------------------------------------|------------------------------------------------------|
--4--4----4----5--5----5----4--4----4---5----4----|--------5------------5------------5---------------|--------------------------------------------------|--0--0------0--0--0------0--0--0------------------|--------------------------------------------------|--------------------------------------------------|
Chorus(guitar 1) --4------4---5------5---4------4---5------5----|--x----5-----x----5-----x----5-----x----5------|--2----------2----------2----------2--------2--|-----------------------------------------------|-----------------------------------------------|-----------------------------------------------|
--4------4----5------5----4------4----5------5----|-------5-----------5-----------5-----------5------|--------------------------------------------------|--4--------4--4--------4--4--------4--4--------4--|--------------------------------------------------|--------------------------------------------------|
--4------4----5------5----4------4---5----4----|-------5-----------5-----------5---------------|-----------------------------------------------|--0--------0--0--------0--0--------------------|-----------------------------------------------|-----------------------------------------------|
--4------4---5------5---4------4---5------5----|-------5----------5----------5----------5------|--2----------2----------2----------2--------2--|-----------------------------------------------|-----------------------------------------------|-----------------------------------------------|
Chorus(Guitar 2)
--------------------------------------------------|--------------------------------------------------|--------------------------------------------------|--9--9--9--9--9--9--9--9--9--9--9--9--9--9--9--9--|--9--9--9--9--9--9--9--9--9--9--9--9--9--9--9--9--|--7--7--7--7--7--7--7--7--7--7--7--7--7--7--7--7--|
--------------------------------------------------|--------------------------------------------------|--------------------------------------------------|--6--6--6--6--6--6--6--6--6--6--6--6--6--6--6--6--|--6--6--6--6--6--6--6--6--6--6--6--6--6--6--6--6--|--4--4--4--4--4--4--4--4--4--4--4--4--4--4--4--4--|
-----------------------------------------------|-----------------------------------------------|-----------------------------------------------|--2--2--2--2--2--2--2--2--2--2--2----7----6----|--2--2--2--2--2--2--2--2--2--2--2----7----6----|--0--0--0--0--0--0--0--0--0--0--0----5----4----|
--------------------------------------------------|--------------------------------------------------|--------------------------------------------------|--7--7--7--7--7--7--7--7--7--7--7--7--7--7--7--7--|--7--7--7--7--7--7--7--7--7--7--7--7--7--7--7--7--|--5--5--5--5--5--5--5--5--5--5--5--5--5--5--5--5--|
Verse
--4--4----4---5--5----5---4--4----4---5--5----5----|--------5-----------5-----------5-----------5------|--2--2--------2--2--------2--2--------2--2------2--|---------------------------------------------------|---------------------------------------------------|---------------------------------------------------|
--4--4----4----5--5----5----4--4----4----5--5----5----|--------5------------5------------5------------5------|------------------------------------------------------|--4--4------4--4--4------4--4--4------4--4--4------4--|------------------------------------------------------|------------------------------------------------------|
--4--4----4----5--5----5----4--4----4---5----4----|--------5------------5------------5---------------|--------------------------------------------------|--0--0------0--0--0------0--0--0------------------|--------------------------------------------------|--------------------------------------------------|
--4--4----4---5--5----5---4--4----4---5--5----5----|--------5-----------5-----------5-----------5------|--2--2--------2--2--------2--2--------2--2------2--|---------------------------------------------------|---------------------------------------------------|---------------------------------------------------|
--4--4----4---5--5----5---4--4----4---5--5----5----|--------5-----------5-----------5-----------5------|--2--2--------2--2--------2--2--------2--2------2--|---------------------------------------------------|---------------------------------------------------|---------------------------------------------------|
--4--4----4----5--5----5----4--4----4----5--5----5----|--------5------------5------------5------------5------|------------------------------------------------------|--4--4------4--4--4------4--4--4------4--4--4------4--|------------------------------------------------------|------------------------------------------------------|
--4--4----4----5--5----4----4--4----4---5----4----|--------5------------5------------5---------------|--------------------------------------------------|--0--0------0--0--0------0--0--0------------------|--------------------------------------------------|--------------------------------------------------|
Outro (guitar 1)
|---4--4--4--4--5--5--5--5--4--4--4--4--5--5--5--5--||---5--5--5--5--5--5--5--5--5--5--5--5--5--5--5--5--||*--2--2--2--2--2--2--2--2--2--2--2--2--2--2--2--2--||*--------------------------------------------------||---------------------------------------------------||---------------------------------------------------|
--4--4--4--4--5--5--5--5--4--4--4--4--5--5--5--5--|--5--5--5--5--5--5--5--5--5--5--5--5--5--5--5--5--|--x--x--x--x--x--x--x--x--x--x--x--x--x--x--x--x--|--4--4--4--4--4--4--4--4--4--4--4--4--4--4--4--4--|--------------------------------------------------|--------------------------------------------------|
--4--4--4--4--5--5--5--5--4--4--4--4--5--5--5--5--|--5--5--5--5--5--5--5--5--5--5--5--5--5--5--5--5--|--x--x--x--x--x--x--x--x--x--x--x--x--x--x--x--x--|--0--0--0--0--0--0--0--0--0--0--0--0--0--0--0--0--|--------------------------------------------------|--------------------------------------------------|
--4--4--4--4--5--5--5--5--4--4--4--4--5--5--5--5--|--5--5--5--5--5--5--5--5--5--5--5--5--5--5--5--5--|--2--2--2--2--2--2--2--2--2--2--2--2--2--2--2--2--|--------------------------------------------------|--------------------------------------------------|--------------------------------------------------|
--4--4--4--4--5--5--5--5--4--4--4--4--5--5--5--5--|--5--5--5--5--5--5--5--5--5--5--5--5--5--5--5--5--|--2--2--2--2--2--2--2--2--2--2--2--2--2--2--2--2--|--------------------------------------------------|--------------------------------------------------|--------------------------------------------------|
--4--4--4--4--5--5--5--5--4--4--4--4--5--5--5--5--|--5--5--5--5--5--5--5--5--5--5--5--5--5--5--5--5--|--x--x--x--x--x--x--x--x--x--x--x--x--x--x--x--x--|--4--4--4--4--4--4--4--4--4--4--4--4--4--4--4--4--|--------------------------------------------------|--------------------------------------------------|
--4--4--4--4--5--5--5--5--4--4--4--4--5--5--5--5--|--5--5--5--5--5--5--5--5--5--5--5--5--5--5--5--5--|--x--x--x--x--x--x--x--x--x--x--x--x--x--x--x--x--|--0--0--0--0--0--0--0--0--0--0--0--0--0--0--0--0--|--------------------------------------------------|--------------------------------------------------|
--4--4--4--4--5--5--5--5--4--4--4--4--5--5--5--5---||--5--5--5--5--5--5--5--5--5--5--5--5--5--5--5--5---||--2--2--2--2--2--2--2--2--2--2--2--2--2--2--2--2--*||--------------------------------------------------*||---------------------------------------------------||---------------------------------------------------||
|---------------------------------------------------||---------------------------------------------------||*--------------------------------------------------||*--9--9--9--9--9--9--9--9--9--9--9--9--9--9--9--9--||---9--9--9--9--9--9--9--9--9--9--9--9--9--9--9--9--||---7--7--7--7--7--7--7--7--7--7--7--7--7--7--7--7--|
--------------------------------------------------|--------------------------------------------------|--------------------------------------------------|--6--6--6--6--6--6--6--6--6--6--6--6--6--6--6--6--|--6--6--6--6--6--6--6--6--6--6--6--6--6--6--6--6--|--4--4--4--4--4--4--4--4--4--4--4--4--4--4--4--4--|
--------------------------------------------------|--------------------------------------------------|--------------------------------------------------|--2--2--2--2--2--2--2--2--2--2--2--2--2--2--2--2--|--2--2--2--2--2--2--2--2--2--2--2--2--2--2--2--2--|--0--0--0--0--0--0--0--0--0--0--0--0--0--0--0--0--|
--------------------------------------------------|--------------------------------------------------|--------------------------------------------------|--7--7--7--7--7--7--7--7--7--7--7--7--7--7--7--7--|--7--7--7--7--7--7--7--7--7--7--7--7--7--7--7--7--|--5--5--5--5--5--5--5--5--5--5--5--5--5--5--5--5--|
--------------------------------------------------|--------------------------------------------------|--------------------------------------------------|--9--9--9--9--9--9--9--9--9--9--9--9--9--9--9--9--|--9--9--9--9--9--9--9--9--9--9--9--9--9--9--9--9--|--7--7--7--7--7--7--7--7--7--7--7--7--7--7--7--7--|
--------------------------------------------------|--------------------------------------------------|--------------------------------------------------|--6--6--6--6--6--6--6--6--6--6--6--6--6--6--6--6--|--6--6--6--6--6--6--6--6--6--6--6--6--6--6--6--6--|--4--4--4--4--4--4--4--4--4--4--4--4--4--4--4--4--|
--------------------------------------------------|--------------------------------------------------|--------------------------------------------------|--2--2--2--2--2--2--2--2--2--2--2--2--2--2--2--2--|--2--2--2--2--2--2--2--2--2--2--2--2--2--2--2--2--|--0--0--0--0--0--0--0--0--0--0--0--0--0--0--0--0--|
OUtro (Guitar 2)
---------------------------------------------------||---------------------------------------------------||--------------------------------------------------*||--7--7--7--7--7--7--7--7--7--7--7--7--7--7--7--7--*||--7--7--7--7--7--7--7--7--7--7--7--7--7--7--7--7---||--5--5--5--5--5--5--5--5--5--5--5--5--5--5--5--5---||
intro chorus verse chorus verse outro
Tap to rate this tab
 
# A B C D E F G H I J K L M N O P Q R S T U V W X Y Z