Take A Breath tab with lyrics by Staind - Easy chords and tabs for guitar

Staind – Take A Breath tab

Tuning: Drop C

. - PM
x - muted note
\ - slide down
/ - slide up
h - hammer-on
p - pull-off
<> - PH
b - full step bend
b.5 - half step bend
r - release bend
~ - vibrato
\/ - full step whammy bar dip and release

Intro4/4slight dist.let ring------------------|----------------|------------------|----------------|-12--12--13--10---|-12--12--8--7---|---10--10--10--10-|---10--10-10-10-|------------------|----------------|------------------|----------------|
3/4------------------|-------------|---|------------------|-------------|---|-12--12--13--10---|-8--8--10--7-|---|---10--10--10--10-|--10-10--10--|---|------------------|-------------|---|------------------|-------------|---|
4/4dist.------------------------------------|------------------------------------|------------------------------------|-10-------10----------6-6-6-6-5-5-5-|-10-------10----------6-6-6-6-5-5-5-|-10-10-10-10-10-10-10-6-6-6-6-5-5-5-| . . . . .
-----------------------------|-----------------------------|-----------------------------|-3-----3-------1-1-1-1-0-0-0-|-3-----3-------1-1-1-1-0-0-0-|-3-3-3-3-3-3-3-1-1-1-1-0-0-0-| . . . . .
------------------------------------|------------------------------------|------------------------------------|-10-------10----------6-6-6-6-5-5-5-|-10-------10----------6-6-6-6-5-5-5-|-10-10-10-10-10-10-10-6-6-6-6-5-5-5-| . . . . .
-----------------------|-----------------------|-----------------------|-3-----3-----1-3-5-1-1-|-3-----3-----1-3-5-1-1-|-3-3-3-3-3-3-1-3-5-1-1-| . . . .
-------------|-------------|-------------|-------------|-------------|-------------|-10----------|-------------|-10----------|-------------|-10----------|-------------|
Chorus-----------------------------|-----------------------------|-----------------------------|-6-----6-------6-6-6-6-6-6-6-|-6-----6-------6-6-6-6-6-6-6-|-6-6-6-6-6-6-6-6-6-6-6-6-6-6-| . . . . .
(same rhythm as above) 1. 2.----|---|---|-----------------------|----|---|---|-----------------------|----|---|---|-----------------------|-10-|-3-|-5-|-5-----5-----1-3-5-1-1-|-10-|-3-|-5-|-5-----5-----1-3-5-1-1-|-10-|-3-|-5-|-5-5-5-5-5-5-1-3-5-1-1-| . . . .
--------------|--------------|--------------|-10---------\-|--x-----------|-10---------\-|
Solo-15-15h16p15---------------------------------------|------------18-16h18p16-15-16-15h16p15-------------|--------------------------------------17-15-15h17\-|---------------------------------------------------|---------------------------------------------------|---------------------------------------------------|
-------------------------------------|-------------------------------------|------8-10-<10>br-8-------8-10-<12>~-|---/10-------------10---10-----------|-------------------------------------|-------------------------------------|
-------------------------------------------------15-|-----13-15-15b.5r-13-15-16-18-15-16-18-18b~-15-16---|---12-----------------------------------------------|----------------------------------------------------|----------------------------------------------------|----------------------------------------------------|
-18-15--15-------------------------------------------------|------16--16-15-18-15--15----------------------------------|---------------------17--17--15----------------------------|---------------------------17--17--17-----15---------------|---------------------------------18--18-17--17-15-17-13-15-|-----------------------------------------------------------|
\/ \/ \/---------------------|------------------15-16-|---------------------|----------15-16-15------|---------------------|--------12--------------|-----------17-18-17\-|-/15--~~----------------|-15----~~15----------|------------------------|---------------------|------------------------|
-15-15/18-20-18/20-22b.5r-|--------------------------|--------------------------|--------------------------|--------------------------|--------------------------|
-22br-20-20-20p18-18-18-18\15--15-18-15--15-|-18b~~~~~~~-|-----------------------------16--------16---|------------|--------------------------------------------|------------|--------------------------------------------|------------|--------------------------------------------|------------|--------------------------------------------|------------|
Please rate this tab:
x1.0