Wannabe tab with lyrics by Staind - Easy chords and tabs for guitar

Staind – Wannabe tab

-----STAIND - "WANNABE" (STAIND 2011)-----

<> - PH
~ - vibrato
h - hammer-on
p - pull-off
. - PM
trem. - tremolo pick
/ - slide up
\ - slide down
x - muted string
harm - natural harmonic
 - tapping harmonic
b - full step bend
pb - full step pre-bend
r - release bend

Tuning: Drop-Db

Intro--------|--------|--------|--------|--------|-<5>~~~-|
-------------------------------------------|-------------------------------------------|-------------------------------------------|-10h12-------12----10-12-10-12-------------|-10h12-12-12-12-12-10-12-10-12-13-13-13-13-|-10h12-12-12-12-12-10-12-10-12-13-13-13-13-| . . . . . . .
-------------------------------------------|-------------------------------------------|-------------------------------------------|-10h12-------12----10-12-10-12-13----------|-10h12-12-12-12-12-10-12-10-12-13----------|-10h12-12-12-12-12-10-12-10-12-13----------| . . .
Intro Solo trem. w/fdbk.-16---------\---|---------|----------------|---------|-------------2/-|-7-------|----------------|---------|----------------|---------|----------------|---------|
----------------------------|-------------------|----------------------15h18-|-18b-18b-pb18-18br-|--------------14-15-17------|-------------------|---------13-15--------------|-------------------|-12-14-15-------------------|-------------------|----------------------------|-------------------|
-------------------------------------------------|---------15--------------------------------------|-14-15-17--15-14-17-14---------------------------|----------------------17-15-----<17>brp15-----15-|---------------------------17-15---------17-15---|-------------------------------------------------|
Verse/Pre-Chorus sorry, I couldn't figure this one out :(
Chorus-----------------|-----------------|-----------------|-----------------|---------------8-|---------------5-|-8p5-5-5-8p5-5-8-|-8p5-5-5-8p5-5-5-|-8p5-5-5-8p5-5-6-|-8p5-5-5-8p5-5-3-|-8p5-5-5-8p5-5-6-|-8p5-5-5-8p5-5-3-| . . . . . .
-----------------|-----------------|-----------------|-----------------|---------------8-|-3-------5-----7-|-8p5-5-5-8p5-5-8-|-3-------5---x-7-|-8p5-5-5-8p5-5-6-|-1-------3---x-5-|-8p5-5-5-8p5-5-6-|-1-------3---x-5-| . . .
Pre-SoloTuning: Drop D with the middle D string down a half stepE-----------------------------|B-----------------------------|G-----------------------------|Db-5-7-7-7-5-7-8--------------|A-------------4-5-5-5-5-5-5-5-|D-----------------------------| harm------|. harm--------|
SoloTuning: Drop Db T T T-----|------------------|-----|-3-<19>-<15>-<10>-|-3h5-|------------------|-----|------------------|-----|------------------|-----|------------------|
---------------------------------|---------------------------------|-7-0-0-0-5-0-0-0-3-0-0-0-----0-5-|------------------------<2>~~----|---------------------------------|---------------------------------| . .
-------------------------------------------|-------------------------------------------|-8-5-0-7-3-0-5-2-0-3-2-0-7-3-0-3-2-0-<5>~~-|-------------------------------------------|-------------------------------------------|-------------------------------------------| . . . . . . . . . . . . . . . . . .
hold bend--------------------------|-8b-8b-8-8-8-8-8r-|-8------------------------|------------------|--8-7-8-10-8-7-8--8-7-8-7-|------------------|----------------10--------|------------------|--------------------------|------------------|--------------------------|------------------|
. hold bend-|-10-8-----------------------------|-----11-8-11-8-8------------------|----------------10b-10-10-10-10r\-|----------------------------------|----------------------------------|----------------------------------|
------------------------------------------|-11-10-8-10-11-13-10-11-13-11-11-13-13br\-|------------------------------------------|------------------------------------------|------------------------------------------|------------------------------------------|
-----------------------------------------15-17-18----------------------------------15-16-18----------------------------------14-15-17----------------------------------12-13-15----------------------------------12-13-15----------------------------------12-13-15----------------------------------------- . . . . . .
-17-15----------------18-20-|------18-16-15-16-18~~------|----------------------------|----------------------------|----------------------------|----------------------------|
-22-20-18-20-18--18------------------------------------------22--22-20-18--------18------------------------------------20-19-20--20-19-17-------------------------------------------------------------------------------------------------------------------------------------------
-------------------------|---------------------17b-|---------17-19-20-19-17b-|-20-19-20----------------|-------------------------|-------------------------|
Lyrics: -INTRO- -INTRO SOLO- -VERSE 1- "I'm selling records. What is it that you do? Sitting in your mama's basement with her shih tzu. Peanut butter on your dick, Right hand going click, With your left hand giving you a rim job. So now you wanna talk about me, Whose name is on the marquee. You hate everything that you can't be. I've heard it all before." -PRE-CHORUS 1- "YOU'RE JUST A SELLOUT, TURN-COAT ROCKSTAR, PUSSY, POSER, POPSTAR." -CHORUS- "Because you're nothing but a wannabe. It's so easy when you're faceless. Why don't you focus on your misery, Instead of focusing on me?" -VERSE 2- "So number two, that's right. What is it you're rolling, Now that your mama's Ford Focus got stolen? But it don't matter 'cause you've got nowhere to go, So back to the hating, frantic masturbating. So now you wanna talk about me. You know the songs that you download for free. You hate everything that you can't be. I've heard it all before." -PRE-CHORUS 2- "YOU'RE JUST A SELLOUT, TURN-COAT POPSTAR, PUSSY, POSER, ROCKSTAR." -CHORUS- "Because you're nothing but a wannabe. It's so easy when you're faceless. Why don't you focus on your misery, Instead of focusing on me?" -PRE-SOLO- "So number two, that's right. What is it you're rolling, Now that your mama's Ford Focus got stolen? But it don't matter 'cause you've got nowhere to go, So back to the hating, frantic masturbating. So now you wanna talk about me. So now you wanna talk about me." -SOLO- -CHORUS- "Because you're nothing but a wannabe. It's so easy when you're faceless. Why don't you focus on your misery, Instead of focusing on me? Nothing but a wannabe. It's so easy when you're faceless. Why don't you focus on your misery, Instead of focusing on me?" -OUTRO- "I'm selling records. What is it that you do? Sitting in your mama's basement. I'm selling records. What is it that you do? I'm selling records."
Please rate this tab:
x1.0