Static X - Wisconsin Death Trip tab

-------------------------------------------------------------------------------------
Wisconsin Death Trip (Tuning C-F-A#-D#-G-C)
-------------------------------------------------------------------------------------

Push It-

Intro|-------------||-6-----66----||-------------||-------------||-------------||----0------0-|
|------------------------------||------------------------------||------------------------------||-225-2225--225-2225--225-2225-||-225-2225--225-2225--225-2225-||-003-0003--003-0003--003-0003-|
|---------||---------||---------||-5225225-||-5225225-||-3003003-|
|---------------------------------------||---------------------------------------||---------------------------------------||-5---------3--------225-2225--225-2225-||-5---------3--------225-2225--225-2225-||-3---------1--------003-0003--003-0003-|
|---------13^-||-------------||-------------||-225-222-----||-225-222-----||-003-000-----|
Im With Stupid-
|------------------------||------------------------||------------------------||-2222222222222222222-15-||-2222222222222222222-15-||-0000000000000000000-13-|
|-------------------||-------------------||-------------------||-22-2-22-2-22-2-22-||-22-2-22-2-22-2-22-||-00-0-00-0-00-0-00-|
|-----------------------||-----------------------||-----------------------||-3333333333333333333-4-||-3333333333333333333-4-||-1111111111111111111-2-|
|-------------------||-------------------||-------------------||-------------------||-------------------||-00-0-00-0-00-0-00-|
Bled For Days-
|-------------||-------------||----------2--||-44-44-44-24-||-44-44-44-04-||-22-22-22--2-|
|----------||----------||----------||-5-2-55-2-||-5-2-55-2-||-3-0-33-0-|
|---||---||---||-4-||-4-||-2-|
|-------3--------3---||-------3--------3---||-------0--------0---||-4-----0-4------0-4-||-4-----x-4------x-4-||-2-----3-2------3-2-|
|----------------------||----------------------||-11111111111212121212-||----------------------||----------------------||----------------------|
|---------------------||---------------------||----------2----------||-4--------2----------||-4--------0----------||-2-------------------|
Love Dump-
|----------||----------||----------||----------||----------||-333-5555-|
|----------||----------||----------||----------||-555-7777-||-333-5555-|
|-------------------------------------------------------------------||-------------------------------------------------------------------||-----------------------------15------------------------------------||-222222-222222-222222-222222-----------222222-222222-222222-222222-||-222222-222222-222222-222222-----------222222-222222-222222-222222-||-000000-000000-000000-000000-----------000000-000000-000000-000000-|
|-------||-------||-------||-22222-||-22222-||-00000-|
|------------------------------------------------------------------------------||------------------------------------------------------------------------------||-9999999999999991111111111111111212121212121212121212121414141414141414141414-||------------------------------------------------------------------------------||------------------------------------------------------------------------------||------------------------------------------------------------------------------|
|-----------------------------------------------------------------||-----------------------------------------------------------------||-----------------------------------------------------------------||-555-7777-555-7777-555-7777-555-7777-222222-222222-222222-222222-||-555-7777-555-7777-555-7777-555-7777-222222-222222-222222-222222-||-333-5555-333-5555-333-5555-333-5555-000000-000000-000000-000000-|
I Am-
|-xx-x-xxxxxx-xx-||-xx-x-xxxxxx-xx-||-xx-x-xxxxxx-xx-||-xx-x-xxxxxx-xx-||-xx-x-xxxxxx-xx-||-xx-x-xxxxxx-xx-|
|-----------------||-----------------||-----12-------12-||-----xx-------xx-||-----10-------10-||-0-0-----0-00----|
|-----------------------------------------||-----------------------------------------||-----------------------------------------||-22--------22--------22---------2-22-2-2-||-22--------22--------22---------2-22-2-2-||-00--------00--------00---------0-00-0-0-|
|----||----||----||-22-||-22-||-00-|
|-------------------------------------||-------------------------------------||-------7-7--------7-7----------------||-2-22--x-x--2-22--x-x--2-22--5--6--7-||-2-22--5-5--2-22--5-5--2-22--5--6--7-||-0-00-------0-00-------0-00--3--4--5-|
|----------------||----------------||----------------||-22--2222-22-22-||-22--2222-22-22-||-00--0000-00-00-|
Otsegolation-
|---||---||---||-2-||-2-||-0-|
|----------------------------||----------------------------||----------------------------||-2------*3.1-*3.1-*3.1-*3.1-||-2--------------------------||-0--------------------------|
|-------------||-------------||-------------||-2-2-5-2-2-5-||-2-2-5-2-2-5-||-0-0-3-0-0-3-|
|-------------------||-------------------||-77---77---77---77-||-77-7-77-7-77-7-77-||-55-0-55-0-55-0-55-||-------------------|
Stem-
|-x--x--x--x-||-x--x--x--x-||-x--x--x--x-||-x--x--x--x-||-x--x--x--x-||-x--x--x--x-|
|----------------------------||----------------------------||----9--9-9-9-------9--9-9-9-||----x--x-x-x-------x--x-x-x-||----7--7-7-7-------7--7-7-7-||-0------0-0-0--00------0-0--|
|----||----||-12-||-12-||-10-||----|
|---||---||---||---||---||-0-|
Sweat Of The Bud-
|--------------||--------------||--------------||-2---2-222222-||-2---2-222222-||-0---0-000000-|
|----------------------------||----------------------------||----------------------------||----------------------------||----------------------------||-0-0-0-0-*2--0-0-0-0-*2/2.5-|
|----------------------------||----------------------------||----------------------------||-2-2-2-2-----2-2-2-2--------||-2-2-2-2-----2-2-2-2--------||-0-0-0-0-*2--0-0-0-0-*2/2.5-|
|---------------------||---------------------||---------------------||---------------------||---------------------||-0-0-0-000-0-0-0-000-|
|-xxxxxxxxxx-||-xxxxxxxxxx-||-xxxxxxxxxx-||-xxxxxxxxxx-||-xxxxxxxxxx-||-xxxxxxxxxx-|
|-----------||-----------||-----------||-2-2-2-223-||-2-2-2-223-||-0-0-0-001-|
Fix-
|-----------||-----------||-----------||-----------||-----------||-0-0--00-0-|
|-----------||-----------||-----------||-2-2--22-2-||-2-2--22-2-||-0-0--00-0-|
|-----------||-----------||-----------||------22-2-||------22-2-||-0-0--00-0-|
|--------------------------------------------||--------------------------------------------||-----15---------15---------15--------12--13-||-2---xx-2-2-2---xx-2-2-2---xx-2-2-2--xx--xx-||-2---13-2-2-2---13-2-2-2---13-2-2-2--10--11-||-0------0-0-0------0-0-0------0-0-0---------|
|--------------||--------------||--------------||-7--7-7-7-7-7-||-7--7-7-7-7-7-||-5--5-5-5-5-5-|
|-----------||-----------||-----------||-22-22-222-||-22-22-222-||-00-00-000-|
Wisconsin Death Trip-
|-xx--x-xxx-xx-||-xx--x-xxx-xx-||-xx--x-xxx-xx-||-xx--x-xxx-xx-||-xx--x-xxx-xx-||-xx--x-xxx-xx-|
|-------------------||-------------------||-------------------||-7-7---7-7-7-7-7-7-||-7-7---7-7-7-7-7-7-||-5-0---5-0-5-0-5-0-|
|-xxx-xxx-|*(3.5)|-xxx-xxx-||-xxx-xxx-||-xxx-xxx-||-xxx-xxx-||-xxx-xxx-|
|-------------------||-------------------||-------------------||-8-7---8-7-8-7-8-7-||-8-7---8-7-8-7-8-7-||-6-5---6-5-6-5-6-5-|
|-------------------||-------------------||-------------------||-3-2---3-2-3-2-3-2-||-3-2---3-2-3-2-3-2-||-1-0---1-0-1-0-1-0-|
|------------------||------------------||------------------||------------------||------------------||-0-0-0-0-00-0-0-0-|
|-12-12-12-1212-12-12121212-||---------------------------||---------------------------||---------------------------||---------------------------||---------------------------|
|------------------||------------------||------------------||-2-2-2-2-22-2-2-2-||-2-2-2-2-22-2-2-2-||-0-0-0-0-00-0-0-0-|
The Trance Is The Motion-
|---------------------------||---*7-------*7-------------||---*5-------*5-------------||---------------------------||---------------------------||-0-----0-0------0-0000-0-0-|
|------------------||----*7------------||-*5---------------||---------------*5-||------------*4----||------------------|
|------------||------------||------------||-2--------3-||-2--------3-||-0--------1-|
|---||---||---||-2-||-2-||-0-|
Tap to rate this tab
 
# A B C D E F G H I J K L M N O P Q R S T U V W X Y Z