Steve Ouimette - We Three Kings tab version 1

|-12b14-rb12-10-----------------------------||---------------12-14-14b16rb14-11b12-------||-------------------------------------------||-------------------------------------------||-------------------------------------------||-------------------------------------------|Repeat Once
|---------------------------------------------------||-14b15-15b17-17b19-20b22rb20-19-17-17b19rb17-15-14-||---------------------------------------------------||---------------------------------------------------||---------------------------------------------------||---------------------------------------------------|
|-------------------------------------------||-------------------------------------------||-----------9-11-12-11-9--------------------||-8-9-11-12--------------12-11-9------------||-------------------------------------------|Repeat Twice
|-------------------------------------------||-------------------------------------------||-----------9-11-12-11-9--------------------||-8-9-11-12--------------12-----------------||-------------------------------------------|
With Octave pedal:|-------------------------------------------------------------------||-------------------------------------------------------------------||-----------------------------------------9h11h12----------11h12h14-||-------------------------9h11h12-9h11h12---------11h12h14----------||---------9h10h12-9h10h12-------------------------------------------||-9h10h12-----------------------------------------------------------|
|--------------------------------------------------------||-----------------------------------------------12h14h15-||----------12h14h16-----------11h12h14-11h12h14----------||-12h14h16-----------11h12h14----------------------------||--------------------------------------------------------||--------------------------------------------------------|
|----------12h14h15----------14h15h17----------15h17-||-12h14h15----------14h15h17----------15h17h19-------||----------------------------------------------------||----------------------------------------------------||----------------------------------------------------||----------------------------------------------------|
|-17b19-17-14-------------------------------||-------------15-17-17b19rb17-14b15---------||-------------------------------------------||-------------------------------------------||-------------------------------------------||-------------------------------------------|Repeat Once
|-----------------------------------------------------------||-15-15-17-15-17-17/19-20b22-19-17-17b19rb17-15-14----------||--------------------------------------------------14b16-14-||-----------------------------------------------------------||-----------------------------------------------------------||-----------------------------------------------------------|
|-------------------------------------------||-15-15-15----15-12-12tr15------------------||----------14-------------------------------||-------------------------------------------||-------------------------------------------||-------------------------------------------|Repeat Once
|-----------------------------||-*15-17-19-19b20-19-17-19----||-----------------------------||-----------------------------||-----------------------------||-----------------------------|*Fast picking (Sixteenth notes), I think you can figure out, it'd be a pain to type in a billion "15s".
|----------------------------------------------------||-------------14b15----15b17-------------------------||-------13b14-------14-------------------------------||-11b12----------------------------------------------||----------------------------------------------------||----------------------------------------------------|
|-------------------------------------------||-------------------------------------------||-----------9-11-12-11-9--------------------||-8-9-11-12--------------12-11-9------------||-------------------------------------------||-------------------------------------------|Repeat Three Times
|-------------------------------------------||-------------------------------------------||-------------12-14-15-14-12----------------||-11-12-14-15----------------15-14-12-------||-------------------------------------------||-------------------------------------------|Repeat Three Times
|---------------------------------------||---------------------------------------||---------------------------------------||-\9-9-9/11-11-11\7-7-0tr2--------------||----------------------------------0-1--||--------------------------0-2-3-3------|
|-------------------------------------------------------------||-------------------------------------------------------------||-------------------------------------------------------------||-------------------------------------------------------------||-2-2--2--2-2-2--2--2-2-2-2-2---------------------------------||-----------------------------3-3-3-3-3-3-3-3-2-2-2-2-2-2-2-2-|Repeat
|-/x\-14-14~-12h14-14b15-----------12-14-15-14-12--||-------------------------12-14-15-----------------||--------------------------------------------------||--------------------------------------------------||--------------------------------------------------||--------------------------------------------------|
|---------------------------------------------------------||-15-14-12-14-12---------------------------------12h14h15-||----------------15-14-12-11------------11h12h14----------||------------------------------11h12h14-------------------||---------------------------------------------------------||---------------------------------------------------------|
|-12h14h15p14p12----------12h14h15/17p15p14----14h15h17/19-||----------------15-14h15------------------17--------------||----------------------------------------------------------||----------------------------------------------------------||----------------------------------------------------------||----------------------------------------------------------|
|-17h19p17p15-17p15----------------------------------15h17-17b19-||-------------------19-17h19p17p15-17p15----15h17h19-------------||----------------------------------------16----------------------||----------------------------------------------------------------||----------------------------------------------------------------||----------------------------------------------------------------|
|-19p15----------15-19p15-------------------------------------------||-------17----17----------17----------------------------------------||----------16----------------16----------16h18h19p18p16----16h18h19-||-------------------------------17----17----------------19----------||----------------------------------19-------------------------------||-------------------------------------------------------------------|
|-------------------------------------------------------||-17b19rb17-*12tr15-------------------------------------||---------------------------7---9---7-h9b11-11rb9p7---7-||------------------------/9---9---9-----------------9---||--------------------x\---------------------------------||--------------------x\---------------------------------|*octave pedal
|----------------------------------------------||----------------------------------------------||-------------------------------7h9-9b11rb9-7--||-9-7---7-------------------7h9----------------||-----9---9-7\5h7p5---5-7/9--------------------||-------------------7--------------------------|
|-------------------12h14p12----12-14-15-17/19-15-18-b22------||----------12-14-15----------15-------------------------------||-11-12-14----------------------------------------------------||-------------------------------------------------------------||-------------------------------------------------------------||-------------------------------------------------------------|
|-17b19rb17b19-17-15-14--17-15-14h15p14----------------------------||---------------------------------------17-15-14h15p14-------------||------------------------------------------------------16-15-b16---||------------------------------------------------------------------||------------------------------------------------------------------||------------------------------------------------------------------|
|-------------------------------------------------------------------||-------------------------------------------------------------------||----------------------------11h12h14p12p11----------------11h12h14-||-------------------11h12h14----------------14p12p11h12h14----------||----------10h12h14-------------------------------------------------||-10h12h14----------------------------------------------------------|
|----------12h14h15p14p12----------------------------------||-12h14h15----------------15p14p12-------------------------||----------------------------------14p12p11h12h14p12p11----||-------------------------------------------------------14-||----------------------------------------------------------||----------------------------------------------------------|
|----------------------------------------------------------||----------------------------------------------------------||-11h12h14p12p11----------------11h12h14p12p11-------------||----------------14p12p11h12h14----------------14p12p11h12-||----------------------------------------------------------||----------------------------------------------------------|Repeat
|------------------------------------------------------------||-/15-14-13-12-11-10-9-8-7-6-5-5-4-4-3--15-15/17-15h17-17b19-||------------------------------------------------------------||------------------------------------------------------------||------------------------------------------------------------||------------------------------------------------------------|
|-----------------------------------------------------------------||-20b22rb20-19-17-17b19rb17-15-14-17-17b19rb17-17-15-17-17b19rb17-||-----------------------------------------------------------------||-----------------------------------------------------------------||-----------------------------------------------------------------||-----------------------------------------------------------------|
|--------------------------/19-19-19-19-19--||-15-14------------------------18-18-18-18--||-------14b16\-/16-/16-/16-----16-16-16-16--||-------------------------------------------||-------------------------------------------||-------------------------------------------|
|----------------------------------------------------------||----------------------------------------------------------||-9b11rb9b11rb9p7---9-7--------------------------------7-9-||-----------------9------9-7h9p7---7---------------7h9-----||--------------------------------9---9\7p5---5h7/9---------||------------------------------------------7---------------|
|-------------------------7------------------||-------------------------7------------------||-9b11rb9p7---9-7---------8------------------||-----------9-------------9------------------||-------------------------9------------------||-------------------0wd---7------------------|
Tap to rate this tab
 
# A B C D E F G H I J K L M N O P Q R S T U V W X Y Z