Still Remains - Stay Captive tab

Still Remains - "Stay Captive"
Album: The Serpent

Tabbed by: Sicfreak91

First single off of Still Remains new album. Awesome song, I think.. but I kinda miss
screaming .. but their headed in the right direction. With showings on MTV and other
success. I also did a cover for this song, which is on Youtube, before I ever sat here 
actually tabbed it out. Here's a link:    http://youtube.com/watch?v=r-KVadsmx9c
Enjoy.

TUNING: Drop C (C G C F A D)

NOTE: Rhythm and strumming count are not exactly, but a good idea.

Intro:Guitar 1 (Neck Pickup)|---------------------------------------------------------------||---------------------------------------------------------------||-9/11--14-13-9--13/14-13--14/16--14-13-11--14/16--14-13-16/18--||---------------------------------------------------------------||---------------------------------------------------------------||---------------------------------------------------------------|
|---------------------------------------------------------------||---------------------------------------------------------------||-19-18~--16h18p16--14-16-16--18-19-18-16--18/19--18-16-14------||---------------------------------------------------------------||---------------------------------------------------------------||---------------------------------------------------------------|
|---------------------------------------------------------------||---------------------------------------------------------------||-18/19--18-16-14--13-11~---------------------------------------||---------------------------------------------------------------||---------------------------------------------------------------||---------------------------------------------------------------|
---------------Guitar 1|---------------------------------------------------------------||---------------------------------------------------------------||-9/11--14-13-9--13/14-13--14/16--14-13-11--14/16--14-13-16/18--||---------------------------------------------------------------||---------------------------------------------------------------||---------------------------------------------------------------|
|---------------------------------------------------------------||---------------------------------------------------------------||-19-18~--16h18--18-16-14--16-16--14h16--18-19-18-16--18/19-----||---------------------------------------------------------------||---------------------------------------------------------------||---------------------------------------------------------------|
|---------------------------------------------------------------||---------------------------------------------------------------||-18-16-14--18/19--18-16-14--13--11~----------------------------||---------------------------------------------------------------||---------------------------------------------------------------||---------------------------------------------------------------|
Guitar 2|---------------------------------------------------------------||---------------------------------------------------------------||---------------------------------------------------------------||-4-444444444444--2-222222222--0-000000000--0-00000000-6666-777-||-4-444444444444--2-222222222--0-000000000--0-00000000----------||-4-444444444444--2-222222222--0-000000000--0-00000000----------|
Verse:|---------------------------------------------------------------||---------------------------------------------------------------||---------------------------------------------------------------||-4-44-------4-44-------2-22------9--------7--------------------||-4-44-------4-44-------2-22------9-99999--7-77777--------------||-4-44-------4-44-------2-22------9-99999--7-77777--------------|PM ..... .....
|---------------------------------------------------------------||---------------------------------------------------------------||------------------------------------11-7--9\6-------9-6--7\4---||-4-44-------4-44-------2-22------9---------------7-------------||-4-44-------4-44-------2-22------------------------------------||-4-44-------4-44-------2-22------------------------------------|
Pre-chorus:|---------------------------------------------------------------||---------------------------------------------------------------||---------------------------------------------------------------||-00-000--22-222--444444444--77777--2222--0--0-0-0-0-0----------||-00-000--22-222--444444444--77777--2222--0--0-0-0-0-0--000-----||-00-000--22-222--444444444--77777--2222--0--0-0-0-0-0--000-----|PM ...
Chorus:|---------------------------------------------------------------||---------------------------------------------------------------||---------------------------------------------------------------||-4-444444444444--2-222222222--0-000000000--0-00000000-6666-777-||-4-444444444444--2-222222222--0-000000000--0-00000000----------||-4-444444444444--2-222222222--0-000000000--0-00000000----------|x2
Verse 2:|---------------------------------------------------------------||---------------------------------------------------------------||---------------------------------------------------------------||-4-44------------------2-22------9-99999--7-77777--------------||-4-44------------------2-22------9-99999--7-77777--------------||-4-44------------------2-22------9-99999--7-77777--------------|
------------Guitar 1|---------------------------------------------------------------||---------------------------------------------------------------||-14--13-13-14--14-16-18-14-14--14h16p14\13--13-13-11-13-14--11~||---------------------------------------------------------------||---------------------------------------------------------------||---------------------------------------------------------------|
Guitar 2|---------------------------------------------------------------||---------------------------------------------------------------||---------------------------------------------------------------||-4-44--------------4-44--------------2-22----------------------||-4-44--4444444444--4-44--4444444444--2-22--2222222222----------||-4-44--4444444444--4-44--4444444444--2-22--2222222222----------|PM .......... .......... ..........
|---------------------------------------------------------------||---------------------------------------------------------------||---------------------------------------------------------------||-9-999999--7-777777--------------------------------------------||-9-999999--7-777777--------------------------------------------||-9-999999--7-777777--------------------------------------------|
Pre-chorus 2: Same as first Pre-chorus Chorus 2: Same as first Chorus x2
Breakdown:|---------------------------------------------------------------||---------------------------------------------------------------||---------------------------------------------------------------||-4~~-----------------------0~~---------------------------------||-4~~------------------444--0~~-------------------------------4-||-4~~------------------444--0~~----------------/7--6--7-6--7--4-|PM ...
|---------------------------------------------------------------||---------------------------------------------------------------||---------------------------------------------------------------||---------------------------------------------------------------||------------------------------------------------0--------------||-444444--444444--444444--444444--444444--4-4--7-0--------------|PM...... ...... ...... ...... ......
|---------------------------------------------------------------||---------------------------------------------------------------||---------------------------------------------------------------||---------------------------------------------------------------||-----------------------------------------------4---------------||-00000--000000--000000--000000---/7--6-7-6--7--4---------------|PM..... ...... ...... ......
|---------------------------------------------------------------||---------------------------------------------------------------||---------------------------------------------------------------||---------------------------------------------------------------||------------------------------------------------0--------------||-444444--444444--444444--444444--444444--4-4--7-0--------------|PM...... ...... ...... ...... ......
|---------------------------------------------------------------||---------------------------------------------------------------||---------------------------------------------------------------||----------------------------------------------4-44\------------||----------------------------------------------4-44\------------||-00000--000000--000000--000000--/7--6-7-6--7--4-44\------------|PM..... ...... ...... ......
Chorus 3:|---------------------------------------------------------------||---------------------------------------------------------------||---------------------------------------------------------------||--------------------(Silence)---------------------------777----||--------------------------------------------------------555----||---------------------------------------------------------------|PM ...
|---------------------------------------------------------------||---------------------------------------------------------------||---------------------------------------------------------------||-4-444444444444--2-222222222--0-000000000--0-00000000-6666-777-||-4-444444444444--2-222222222--0-000000000--0-00000000----------||-4-444444444444--2-222222222--0-000000000--0-00000000----------|
------------
Guitar 1|---------------------------------------------------------------||---------------------------------------------------------------||-------14-13-9--13/14-13--14/16--14-13-11--14/16--14-13-16/18--||---------------------------------------------------------------||---------------------------------------------------------------||---------------------------------------------------------------|
|---------------------------------------------------------------||---------------------------------------------------------------||-19-18~--16h18--18-16-14--16-16--14h16--18-19-18-16--18/19-----||---------------------------------------------------------------||---------------------------------------------------------------||---------------------------------------------------------------|
|---------------------------------------------------------------||---------------------------------------------------------------||-18-16-14--18/19--18-16-14--13--11~~---------------------------||---------------------------------------------------------------||---------------------------------------------------------------||---------------------------------------------------------------|
Guitar 2|---------------------------------------------------------------||---------------------------------------------------------------||---------------------------------------------------------------||-4-444444444444--2-222222222--0-000000000--0-00000000-6666-777-||-4-444444444444--2-222222222--0-000000000--0-00000000----------||-4-444444444444--2-222222222--0-000000000--0-00000000----------|
|---------------------------------------------------------------||---------------------------------------------------------------||---------------------------------------------------------------||-4-444444444444--2-222222222--0-000000000--0-0000000-----------||-4-444444444444--2-222222222--0-000000000--0-0000000-----------||-4-444444444444--2-222222222--0-000000000--0-0000000-7-6-7-6--7|
Outro: Same as Breakdown
Tap to rate this tab
 
# A B C D E F G H I J K L M N O P Q R S T U V W X Y Z