Stone Temple Pilots - Daisy tab

#----------------------------------PLEASE NOTE---------------------------------#
#This file is the author's own work and represents their interpretation of the #
#song. You may only use this file for private study, scholarship, or research. #
#------------------------------------------------------------------------------##
#

From: Kevin Gardner 
Date: Tue, 2 Jul 1996 14:26:58 -0400 (EDT)

======
Daisy
======
by Stone Temple Pilots
transcribed by Kevin Gardner code@wam.umd.edu

here is the chord progession
strum a steady four beat

Em7 B7 Em7 B7 B/E Am7 B7 Bm6 2X

G/B D E/G# 2X

G/B D G B7

Em7 B7 Em7 B7 B/E Am7 B7 Bm6

G/B D E/G# 2X

G/B D G B7

here are the chords used

Em7 Bm7 B/E Am7 Bm6 G/B-7- -7- --- -5- -7- -7--8- -7- -5- -5- -8- -8--7- -8- -5- -5- -7- -7--9- -7- -5- -5- -7- -9--7- -9- -7- -7- -9- -10---- -7- --- -5- -7- -7-
E/G# D G-4- --- -3-|-5- -7- -3-|-4- -7- -4-|-6- -7- -5-|-7- -5- -5-|-4- --- -3-|
Here is the slide lead
-------------------------------------- | \-------------------------------------- |---9--11/12-11--12/14-12--14/16-11---- |-9------------------------------------ |-------------------------------------- |-------------------------------------- | 2X
|
-------------------------------------- |-------------------------------------- |---/12-/11-9--11/12-11--12/14-16------ |-9------------------------------------ |-------------------------------------- |-------------------------------------- | /
-----------------------|-----------------------|-16-14/12-11--12/14-13-|-----------------------|-----------------------|-----------------------|
-----------------------|--------------------12-|-16-14/12-11--12/14----|-----------------------|-----------------------|
-----------------------|-----------------------|-16-14/12-11--12/14-12-|-----------------------|-----------------------|-----------------------|
------------------------------------|------------------------------------|---9--11/12-11--12/14-12--14/16-11--|-9----------------------------------|------------------------------------|------------------------------------|
------------------------------------|------------------------------------|---/12-/11-9--11/12-11--12/14-16----|-9----------------------------------|------------------------------------|------------------------------------|
-----------------------|-----------------------|-16-14/12-11--12/14-13-|-----------------------|-----------------------|-----------------------|
-----------------------|-----------------------|--------------------12-|-16-14/12-11--12/14----|-----------------------|-----------------------|
-----------------------|-----------------------|-16-14/12-11--12/14-12-|-----------------------|-----------------------|-----------------------|
Tap to rate this tab
 
# A B C D E F G H I J K L M N O P Q R S T U V W X Y Z