Styles Of Beyond - Nine Thou Superstars Remix tab

Styles Of Beyond - Nine Thou (Superstars Remix)
tabbed by: prikaze

tuning: drop D flat
(Db Ab Db Gb Bb Eb)

NOTE: for the intro and the breakdown which are more or less the same,
some kind of an effect is used, i don't know what tho, sry...
NOTE2:if the number of times i indicated is not right, then it's b-cuz
i have the NFSMW version, and as it is known, they sometimes re-edit
the songs (cutting out or shortening some parts)

Intro1:|-----------------|-----------------|2:|-----------------|-----------------|3:|-----------------|-----------------|4:|-0-7-7-005-08-07-|-0-7-7--6--5--3--|5:|-----------------|--------6--5--3--|6:|-----------------|--------6--5--3--|
main riff 3x 4th time1:|----------------|-----------------|2:|----------------|-----------------|3:|----------------|-----------------|4:|-0-7-7-05-08-07-|-0-7-7--6--5--3--|5:|-0-7-7-05-08-07-|-0-7-7--6--5--3--|6:|-0-7-7-05-08-07-|-0-7-7--6--5--3--|let them ring
3x 4th time1:|----------------|-----------------|2:|----------------|-----------------|3:|----------------|-----------------|4:|-0-7-7--5--8--7-|-0-7-7--6--5--3--|5:|-0-7-7--5--8--7-|-0-7-7--6--5--3--|6:|-0-7-7--5--8--7-|-0-7-7--6--5--3--| don't let ring let ring
distorted bass part before verse 1st time1:|-----------------------------------|2:|-----------------------------------|3:|-----------------------------------|4:|-0-7-8-7-0-7-8-7-0-7-8-7-10-10-8-7-|
2nd time1:|-----------------------------------|2:|-----------------------------------|3:|-----------------------------------|6:|-0-7-8-7-0-7-8-7-0-7-8-7-----------|
verse 3x 4th time1:|-----------------|-------------------|2:|-----------------|-------------------|3:|-----------------|-------------------|4:|-0-7-8-7---7-8-7-|-0-7-8-7-10-10-8-7-|5:|-0-7-8-7---7-8-7-|-0-7-8-7-10-10-8-7-|6:|-0-7-8-7---7-8-7-|-0-7-8-7-10-10-8-7-|
2x 1:|-----------------|2:|-----------------|3:|-----------------|4:|-0-7-8-7---7-8-7-|5:|-0-7-8-7---7-8-7-|6:|-0-7-8-7---7-8-7-|
1:|-----------------------------------------------------------|2:|-----------------------------------------------------------|3:|-----------------------------------------------------------|4:|-7-7---7---7-7-7---7---7-7-7---7---7-7-7---7--7--7-7-7---7-|5:|-7-7---7---7-7-7---7---7-7-7---7---7-7-7---7--7--7-7-7---7-|6:|-7-7---7---7-7-7---7---7-7-7---7---7-7-7---7--7--7-7-7---7-|
1:|--------------------------------------|2:|--------------------------------------|3:|--------------------------------------|4:|-7-7-7---7---7-7-7---7---7-7----------|5:|-7-7-7---7---7-7-7---7---7-7----------|6:|-7-7-7---7---7-7-7---7---7-7----------|
pre-chorus1:|-----------------------------------------------------------------|2:|-----------------------------------------------------------------|3:|-----------------------------------------------------------------|4:|-2-2---0-2-2---0-3-3---0-3-3---0-2-2---0-2-2---0-3-3-3-3-3-3-3-3-|5:|-2-2---0-2-2---0-3-3---0-3-3---0-2-2---0-2-2---0-3-3-3-3-3-3-3-3-|6:|-2-2---0-2-2---0-3-3---0-3-3---0-2-2---0-2-2---0-3-3-3-3-3-3-3-3-|
1:|-------------------------------------------|2:|-(3)---------------(8)---------------------|3:|-(2)---------------(7)---------------------|4:|--0--------3--------6--------5-5-5-5--3--6-|5:|--0--------3--------6--------5-5-5-5--3--6-|6:|--0--------3--------6--------5-5-5-5--3--6-|
chorus 3x 4th time1:|----------------|----------------------|2:|----------------|----------------------|3:|----------------|----------------------|4:|-0-7-7-05-08-07-|-0-7-7--6--5--3-0~-//-|5:|-0-7-7-05-08-07-|-0-7-7--6--5--3-0~-//-| / = slide up6:|-0-7-7-05-08-07-|-0-7-7--6--5--3-0~-//-|
verse 2distorted bass (or guitar on the lowest srtring) 3x 4th time1:|-----------------|-------------------|2:|-----------------|-------------------|3:|-----------------|-------------------|4:|-0-7-8-7---7-8-7-|-0-7-8-7-10-10-8-7-|
1:|-----------------|-------------------|2:|-----------------|-------------------|3:|-----------------|-------------------|4:|-----------------|---------10-10-8-7-|5:|-----------------|---------10-10-8-7-|6:|-----------------|---------10-10-8-7-|
3x 4th time1:|-----------------|-------------------|2:|-----------------|-------------------|3:|-----------------|-------------------|4:|-0-7-8-7---7-8-7-|-0-7-8-7-10-10-8-7-|5:|-0-7-8-7---7-8-7-|-0-7-8-7-10-10-8-7-|6:|-0-7-8-7---7-8-7-|-0-7-8-7-10-10-8-7-|
1:|-----------------------------------------------|2:|-----------------------------------------------|3:|-----------------------------------------------|4:|-0-0---0---0-0-0---0---0-0-0---0---0-0-0---0---|5:|-0-0---0---0-0-0---0---0-0-0---0---0-0-0---0---|6:|-0-0---0---0-0-0---0---0-0-0---0---0-0-0---0---|
1:|------------------------------------------------------------|2:|------------------------------------------------------------|3:|------------------------------------------------------------|4:|-0-0-0-1-0---0-1-0-0-0-1-0---0-1-0-0-0-1-0---0-1-0-0--------|5:|-0-0-0-1-0---0-1-0-0-0-1-0---0-1-0-0-0-1-0---0-1-0-0--------|6:|-0-0-0-1-0---0-1-0-0-0-1-0---0-1-0-0-0-1-0---0-1-0-0--------|
pre-chorus1:|-----------------------------------------------------------------|2:|-----------------------------------------------------------------|3:|-----------------------------------------------------------------|4:|-2-2---0-2-2---0-3-3---0-3-3---0-2-2---0-2-2---0-3-3-3-3-3-3-3-3-|5:|-2-2---0-2-2---0-3-3---0-3-3---0-2-2---0-2-2---0-3-3-3-3-3-3-3-3-|6:|-2-2---0-2-2---0-3-3---0-3-3---0-2-2---0-2-2---0-3-3-3-3-3-3-3-3-|
1:|-------------------------------------------|2:|-(3)---------------(8)---------------------|3:|-(2)---------------(7)---------------------|4:|--0--------3--------6--------5-5-5-5--3--6-|5:|--0--------3--------6--------5-5-5-5--3--6-|6:|--0--------3--------6--------5-5-5-5--3--6-|
chorus 3x 4th time1:|----------------|-----------------|2:|----------------|-----------------|3:|----------------|-----------------|4:|-0-7-7-05-08-07-|-0-7-7--6--5--3--|5:|-0-7-7-05-08-07-|-0-7-7--6--5--3--|6:|-0-7-7-05-08-07-|-0-7-7--6--5--3--|let them ring
verse 3bass 1st time the rest of the times (3x) 1:|-------------|------------------|-------------|------------------|2:|-------------|------------------|-------------|------------------|3:|-------------|------------------|-------------|------------------|4:|-00-07-05-08-|-00707-05-08--7\\-|-0--07-05-08-|-00707-05-08--7\\-|
4x1:|-----------------|2:|-----------------|3:|-----------------|4:|-0-7-7--5--8-----|5:|-0-7-7--5--8-----|6:|-0-7-7--5--8-----|
5th time bass1:|-----------------|2:|-----------------|3:|-----------------|4:|-0-7-7--5--8--7\-|
6th time1:|------------------|2:|------------------|3:|------------------|4:|-0-7-7--5--8--7-0-|5:|-0-7-7--5--8--7-0-|6:|-0-7-7--5--8--7-0-|
breakdown 3x 4th time (not sure about the end, cuz it's hard to hear)1:|------------------|------------------|2:|------------------|------------------|3:|------------------|------------------|4:|-00-7-7-005-08-07-|-00-7-7-00--------|5:|------------------|------------------|6:|------------------|------------------| "wassup now!"
end chorus 3x 4th time1:|----------------|-----------------|2:|----------------|-----------------|3:|----------------|-----------------|4:|-0-7-7-05-08-07-|-0-7-7--6--5--3--|5:|-0-7-7-05-08-07-|-0-7-7--6--5--3--|6:|-0-7-7-05-08-07-|-0-7-7--6--5--3--|
outro1:|------------------------------------------|2:|------------------------------------------|3:|------------------------------------------|4:|-0-7-7--6--5--3-6--5--3-6--5--3-6--5--3-0-|5:|-0-7-7--6--5--3-6--5--3-6--5--3-6--5--3-0-|6:|-0-7-7--6--5--3-6--5--3-6--5--3-6--5--3-0-|
i'm not saying my tab is 100% correct, cuz i'm not that sure about it, but i think it's close, any corrections? mail to: zpeter@penguinsfan.com thanks;)
Tap to rate this tab
 
# A B C D E F G H I J K L M N O P Q R S T U V W X Y Z