Suede – The Wild Ones tab ver. 2

t. See http://www.olga.net/faq/ for more information.                     #
#-----------------------------------------------------------------------------#

From: AAuuddee@aol.com
Date: Mon, 13 Dec 1999 15:43:21 EST
Subject: s/suede/the_wild_ones.tab

THE WILD ONES by Suede (from the album Dog Man Star -94-)
---------------------------------------------------------

Tabbed by AAuuddee@aol.com


NOTE:
As it's sometimes quite difficult to hear perfectly what is played,
I've tabbed this file from a live in Spain in 99. So if you
notice some differences,don't worry as it sounds right with the
CD as well...I just preferred the live version played this summer.
Actually you've got to feel this song to play it all right.
Anyway don't hesitate to contact me if you don't like my tab....


INTRO: Eb Eb Ab =20--11-------------------------------------4--4h6--4--3--3--4--3-------11-------------------------------------4----------4--4--4--4--4-------8--------------------8--------8--5-------------------------5-------8--5s6--6s7--7s8--8--8--5--6--8--6---------------------------------6--------------------6--6--6--6--6---------------------------------6--------------------6--6--6--6--4----------------------------
F Ab---------------------4--3------------------8----------4--4--4--4----10--10--10--10--5--------5--5----10--10------10--6----------------8---------------6----------------8---------------4--------------
These () are played in the live only: Eb Eb Eb Eb(-------------------------------------------------------------------(-------------------------------------------------------------------(--8--------------------8--------------8--------------------8-------(--8--5s6--6s7--7s8--8--8--------------8--5s6--6s7--7s8--8--8--5--6-(--6--------------------6------6h8--6--6--------------------6--6--6-(--6--------------------6--6h8---------6--------------------6--6--6-
Ab F Ab--------4--3-------3--3--4--3---------------------3--3--------)--------4----4--4--4--4--4--4----------8----------4--4--4--4--)--8--5----------5--------------10--10--10--10--5--------5--5--)--8--6-------------------------10--10------10--6--------------)--6--6-------------------------8---------------6--------------)--6--4-------------------------8---------------4--------------)
VERSE 1: =20 Eb Eb Eb Eb----------------------------------------------------------------------------------------------------------------------------------------8--------------------8--------------8--------------------8---------8--5s6--6s7--7s8--8--8--------------8--5s6--6s7--7s8--8--8--5--6---6--------------------6------6h8--6--6--------------------6--6--6---6--------------------6--6h8---------6--------------------6--6--6-
Ab F Ab--------4--3-------3--3--4--3---------------------3--3----------------4----4--4--4--4--4--4----------8----------4--4--4--4----8--5----------5--------------10--10--10--10--5--------5--5----8--6-------------------------10--10------10--6----------------6--6-------------------------8---------------6----------------6--4-------------------------8---------------4--------------
Eb Eb Eb Eb Ab------------------------------------------------3--4--6--------------------------------------------8--6-------4--4--4---------8--------------8--------------8--8------8--8-----------5------8--5--6--7--5--8--------------8------------8-----------6------6--------------6------6h8--6--6------------6-----------6------6--------------6--6h8---------6------------6-----------4----
F Ab Eb--4--3--3h4--3---------------3--4--3------11-----4--3--11--------------------4h5--4---4----4--4--4--9---9------4--4--9----------------------------5---5-----------10------5------------8----------------------------------------10------6------------8----------------------------------------8-------6------------6----------------------------------------8-------4------------6--
--------------------------------------------------------------------------------------------------------------8b-------5--6--7--5--5--6--6--7--7--8------8--------------------------------------------------------------------------------
CHORUS: Ab Eb Bb Ab Eb Bb Ab Eb Bb--4---11---6-------------4---11---6--------------4---11---6----4---11---6-------8--8--4---11---6--------------4---11---6----5---12---7----------8--5---12---7--------------5---12---7----6---13---8--6s8-----8--6---13---8--------------6---13---8----6---13---8-------------6---13---8------6-------6---13---8----4---11---6-------------4---11---6--6h8---8--6--4---11---6--
F------------------------------------------------11-----------------------------------------------------------------------------------8--10--10b--10--8-----10--8-------8--12-----12--13--14----8h10-------------------10--10----8--9--8---------13---------------------------------------8--------------------------------------------------------------8---------------------------------
------------------------------------------------------------------------------------------13--12------------------------------8--------------13------5--5--6--6--7--7--8-----8---------------6--------------------------------------------------------------------------
VERSE 2: Eb Eb Ab =20--------------------3--4--6-----------4--3--3h4--3----------------------------------4--4--4------4-----------------4h5--4---4-----8--------------8-----------3h5---5----------------------5---5---8--5--6--7--5--8------------------------------------------------6--------------6------------------------------------------------6--------------6----------------------------------------------
F Ab Eb--3--4--3------11-----4--3--11---------------------------------4--4--4--9---9------4--4--9-------------------------------------------10------5------------8--------------8----------8-------------10------6------------8--5--6--7--5--8----------8-------------8-------6------------6--------------6-------6--6-------------8-------4------------6--------------6--6h8-----6--
Eb Ab =20---------------3--4--6-----------4--3--3h4--3------------------8--9--10-----4--4--4------4-----------------4h5--4---4-----------------8-----------3h5---5----------------------5---5---------------8------------------------------------------------------------6------------------------------------------------------------6------------------------------------------------
F Ab Eb =--3--4--3------11-----3--4--3--4--3--4--3---------------------------4--4--4--9---9------4--4--4--4--4--4--4------------------------------------10------5-----------------------6--8--6--8--6--8--6--8------------10------6---------------------------------------------------------8-------6---------------------------------------------------------8-------4----------------------------------------------
----------------------------------------------------6--8--6---------------------------8--6--------------------------9--6--4---------------------------
CHORUS: Ab Eb Bb Ab Eb Bb Ab Eb Bb--4---11---6-------------4---11---6---------------4---11---6----4---11---6-------8--8--4---11---6---------------4---11---6----5---12---7----------8--5---12---7---------------5---12---7----6---13---8--6s8-----8--6---13---8---------------6---13---8----6---13---8-------------6---13---8------6-----6--6---13---8----4---11---6-------------4---11---6--6h8---6h8----4---11---6--
F-----------------------------------------------------------------------------------------------8--10--10b--10--8-----10--8-------8----8h10-------------------10--10----8--9--8-------------------------------8-------------------------------------------8--------------
Ab Eb Bb Ab Eb Bb Ab Eb Bb--4---11---6-------------4---11---6---4---11---6---8--10--11----4---11---6-------8--8--4---11---6---4---11---6---8--8---8-----5---12---7----------8--5---12---7---5---12---7----------------6---13---8--6s8-----8--6---13---8---6---13---8----------------6---13---8-------------6---13---8---6---13---8----------------4---11---6-------------4---11---6---4---11---6--------------
F Ab---------------------------------------------------3------3--3------------------------4-----4-----4-----3--4--3-------------------10--8-------8--3h5----3h5---3h5---3h5----------3----1s3---------10----8--9--8---------------------------------------------------8---------------------------------------------------------------8-------------------------------------------------------------
Eb =20--3---1--3--1--3s4--3--1--------11-----------------------------------4--------------------4-------------------------------------------------------------------12-----12--12--13--14--13--12------8-----------------------------13-----13--13-----------------13---------------------------------13-------------------------------6-------------------------------11-----------------------------------
-------------------------------------------------------------------------------8------5--5--6--6--7--7--8----8----------------------------------------------------------
CHORUS: Ab Eb Bb Ab Eb Bb =20--4---11---6----------------------4---11---6---------------------=20--4---11---6-------8---------8----4---11---6-----------------------5---12---7----------------------5---12---7---------8-----------=20--6---13---8--6h8----6h8--8-------6---13---8-----------------------6---13---8----------------------6---13---8---8h10----8h10--10--=20--4---11---6----------------------4---11---6---------------------
Ab Eb Bb F-----------4---11---6-------------------------------------------------------4---11---6----------------------------------------------------8--5---12---7-------8--10--10b--10--8-----10--8-------8-------------6---13---8--8h10-------------------10--10----8--9--8----8h10-----6---13---8-----------------------------8-------------------------4---11---6-----------------------------8--------------
Ab Eb Bb Ab Eb Bb Ab Eb Bb=20--4---11---6----------------------4---11---6---4---11---6---=20--4---11---6-------8---------8----4---11---6---4---11---6-----5---12---7----------------------5---12---7---5---12---7---=20--6---13---8--6h8----6h8--8-------6---13---8---6---13---8-----6---13---8----------------------6---13---8---6---13---8-----4---11---6----------------------4---11---6---4---11---6--- ...
These () are played in the live only:
(--8--10--11-----------------11--11-------------------------8--)(--8--8---8-------8-------8---9-----------------------------8--)(-------------10----8--9--8----------12--13--14--13--12-----8--)(-------------10---------------------13-----------------13--8--)(-------------8------------------------------------------------)(-------------8------------------------------------------------)
ENJOY!!
Please rate this tab:
x1.0