Suede - Young Men tab

t. See http://www.olga.net/faq/ for more information.                     #
#-----------------------------------------------------------------------------#

Date: Sat, 11 Mar 2000 17:28:08 -0500
From: AAuuddee@aol.com
Subject: s/suede/young_men.tab


YOUNG MEN by SUEDE
FROM "THE BEAUTIFUL ONES" B-SIDE (96)
--------------------------------

TABBED BY AAuuddee@aol.com


INTRO: (x4)---------------------------------------------------------------------------4-------------------6--------------6p5------------5s6---6s5--3--------------6-----6p5--------6--6-----6--------------4----------------8-----------------6h8-----------------------6-------8----------------------------------------4s6--6----------------
VERSE1: (x3)---------------------------------------------------------------------------4-------------------6--------------6p5------------5s6---6s5--3--------------6-----6p5--------6--6-----6--------------4----------------8-----------------6h8-----------------------6-------8----------------------------------------4s6--6----------------
-------------------------------------------------------------------4-------------------6------6p5------------5s6---6s5--3--------------6--------6--6-----6--------------4--------------------------6h8-----------------------6----------------------------------------4s6--6--------
CHORUS:
-----------------2---1--1--------------------------------------1--4---4---1----------2--4--2-------2--4--2----------2------2--------------3---------3---3---------3------3---------------------3-------------3----------------3-----------------------------------------------------------------------------------------------------------
---------------------------------------------------2---1--1----------1--4--4--1-------1--4--4--1-------1--4---4---1-------------2----------------2----------------2------2-----------------3----------------3----------------3------------------------3----------------3----------------3-------------------------------------------------------------------------------------
F---------------------------------------------2---1--1--1--------2--4--2-------2--4--2---------1--4---4---1-------1------3---------3---3---------3-----2------2-------------2----3-------------3---------------3----------------------3--------------------------------3-------------------------------------------------------------------------------------
POST-CHORUS:
---------------------------------------------------------------------6--6h7------------6--6h7-------------------------8--8--8--8----8---8--8--8--8----8--5--5--5--5--5--5--5----8--8--8--8----8---8--8--8--8----8--5--5--5--5--5--5--5---------------------------------------5--5--5--5--5--5--5------------------------------------------------------------
----------------------------------------------------------------------------------------6--6h7------------6--6h7------5h6--5h6--8--6--5--8--8--8--8----8---8--8--8--8----8------5----5----5--5--5--8--8--8--8----8---8--8--8--8----8------5----5----5--5--5-------------------------------------------------------------------------------------------------
-----------------------------------------------------s13--13----13s18~----5--5--5--5--5--s12-----12-----------5--5--5--5--5-----------------------5--5--5--5--5---------------------------------------------------------
VERSE2: same as verse1 CHORUS POST-CHORUS Play this just after the post-chorus:
--------------------------1----------4--2-----------------------4--4---------5--3------------------------------------6--4------------------------------------6--4--6----------------------------------------------
OUTRO:
-----------------2---1--1--------------------------------------1--4---4---1----------2--4--2-------2--4--2----------2------2--------------3---------3---3---------3------3---------------------3-------------3----------------3-----------------------------------------------------------------------------------------------------------
-------------------------------------(x5)--------------2---1-1----------1--4--4--1-------1--4--4--1------------1-4---4---1------------2----------------2---------------------2------2---------------3----------------3---------------------3----------------------3----------------3---------------------3--------------------------------------------------------------------------------------
F---------------------------------------------2---1--1--1--------2--4--2-------2--4--2---------1--4---4---1-------1------3---------3---3---------3-----2------2-------------2----3-------------3---------------3----------------------3--------------------------------3-------------------------------------------------------------------------------------
A#m / F# / Ebm / F (x2) and the song finishes on a A#m At the same time, there are some strange noisy things I tried to tab...:
--15--17--18--15--17--18--15--13s18-------------------------------------------------------------------------------------------------------------------------------------------------------------------------------------------------------------
------------------------------------------------------------------------9~repeated---9b10b11--9~--9b10------------------------------------------------------------------------------------------------------------
ENJOY!!!!!
Tap to rate this tab
 
# A B C D E F G H I J K L M N O P Q R S T U V W X Y Z