Sum 41 - Hooch tab

Band:Sum*41
Song:Hooch
Album:Does this look infected?

key:
 ^=hard bend
 h=hammer on
 \=slide downward
 /=slide upward 
                       
|--17^-17---15h17h15------------------------------------------- |--------------------15~~~~~(15)\-12h13h12--15^-15---12h13h12-- |------------------------------------------------------------14 |-------------------------------------------------------------- |-------------------------------------------------------------- |--------------------------------------------------------------
|-------------------------------------------------------------- |-----------------/10--12---10h12h10--------------------------- |---12---(12)\----/11--12---11h12h11-11----(11)\--------12----- |------------------------------------12----(12)\/12h14----12h14 |-------------------------------------------------------------- |--------------------------------------------------------------
|-------------------------------------------------------------- |-12----------------------------------------------------------- |-12-------12--14-14^-(14)--12h14h12--------------------------- |---12h14----------------------------14--12--14--12------------ |----------------------------------------------------14\12--10- |--------------------------------------------------------------
|-------------------------------------------------------------- |-------------------------------------------------------------- |----------------------------------12----12-14-12-14^-(14)--12- |----------------------12----12-14----14----------------------- |-12---12\---/12-13-14----14----------------------------------- |--------------------------------------------------------------
|--15h14h12--------/14h15h17-17^-(17)-17-14--151514141717141415 |----------15h13h12-------------------------------------------- |-------------------------------------------------------------- |-------------------------------------------------------------- |-------------------------------------------------------------- |--------------------------------------------------------------
|1514141717141415151414171714141515141417\--------------------- |-------------------------------------------------------------- |-------------------------------------------------------------- |-------------------------------------------------------------- |-------------------------------------------------------------- |--------------------------------------------------------------
|-------------------------------------------------------------- |---/12-----10-------------------------------------------------
|-------------------12---------11------------------------------first guitar |---------------------------------------------(12)------------- |-------------------------------------------------------------- |--------------------------------------------------------------
|-------------------------------------------------------------- |-------------------------------------------------------------- |---/12-----11-------------------------------------------------
|-------------------14---------11------------------------------second guitar |---------------------------------------------(12)------------- |--------------------------------------------------------------
This is the correct way to play the solo to hooch. Tabbed by:Cammy27@aol.com
Tap to rate this tab
 
# A B C D E F G H I J K L M N O P Q R S T U V W X Y Z