Sunna - One Minute Science tab

Sunna, One Minute Science Album.
 Tabbed by Myke, A_Violet_Fluid@hotmail.com.
  
SUNNA
ONE MINUTE SCIENCE

************************************************************************

Featuring:

Power Struggle
O.D
I'm Not Trading
I Miss
Grape
7%
7% (Live Version)

************************************************************************
SUNNA
POWER STRUGGLE


Drop D Tuning

Intro/Outro:

|-------------------------||-------------------------||-------------------------||--3\\----0-3-0--0-3-0-5\\--||--3\\----0-3-0--0-3-0-5\\--||--3\\----0-3-0--0-3-0-5\\--|
Chorus:
|---------------------------||---------------------------||---------------------------||--0-0-3h5--0-0-0-0--3p0h3--||--0-0------0-0-0-0--3p0h3--||--0-0------0-0-0-0--3p0h3--| ... .......
Pre-Outro:
|----------------------||----------------------||----------------------||--0-3-0-3-0-3--6-6-6--||--0-3-0-3-0-3--6-6-6--||--0-3-0-3-0-3--6-6-6--| ..................
************************************************************************ SUNNA O.D Standard Tuning Verse:
|--------3----------------||--------3----------------||-----4--4----------------||----5---5-------------5--||---5--------------5------||--3----------3-3----3----|
Chorus:
|------------------------------------||------------------------------------||------------------------------------||--7-7----7-10-10-x----3-3--5-5-5-5--||--7-7----7-10-10-x----3-3--5-5-5-5--||--5-5----5--8--8-x----1-1--3-3-3-3--|
|------------------------------------||------------------------------------||------------------------------------||--7-7----7-10-10-x----3-3--6-6-5-5--||--7-7----7-10-10-x----3-3--6-6-5-5--||--5-5----5--8--8-x----1-1--4-4-3-3--|
Bridge:
|-----------------------------||-----------------------------||-----------------------------||--7-7----7-10-10-x----3~~~~--||--7-7----7-10-10-x----3~~~~--||--5-5----5--8--8-x----1~~~~--|
************************************************************************ SUNNA I'M NOT TRADING Standard Tuning Intro/Chorus:
|--------------------||--------------------||-------4-4-5-5\\-----||--2----4-4-5-5\\--0--||--2----2-2-3-3\\--2--||--------------------|
Solo: If Anyone Has Any Idea About The Solo Email me And I'll Credit You. ************************************************************************ SUNNA I MISS Standard Tuning Verse Chords:
|--2---------0--||--0----0----1--||--2----1----0--||--1----2----2--||--2----2----3--||-------0-------|
Chorus Chords:
|--2---------0----2--||--0----0----1----3--||--2----1----0----2--||--1----2----2----0--||--2----2----3-------||-------0------------|
Bridge:
|--3----0----0--||--3----2----1--||--0----2----0--||--0----2----2--||--x----0----3--||--3------------| (x2)
|--3----0-------||--3----2----0--||--0----2----0--||--0----2----2--||--x----0----2--||--3---------0--| (x1)
End On:
|----2----||----3----||----2----||----0----||----0----||---------|
************************************************************************ SUNNA 7% Standard Tuning Intro:
|--------||-----0--||--------||--0-----||--------||--------|
Verse 1 Chords:
|--0--|--0--|--1--||--1--|--1--|--1--||--2--|--0--|--2--||--2--|--2--|--3--||--0--|--3--|--3--||-----|-----|--1--| (x2)
|--0--|--0--|-----|--0--|--0--|--1--||--1--|--1--|--0--|--1--|--1--|--1--||--2--|--0--|--1--|--2--|--0--|--2--||--2--|--2--|--2--|--2--|--2--|--3--||--0--|--3--|--2--|--0--|--3--|--3--||-----|-----|--0--|-----|-----|--1--| (x1)
Chorus Chords:
|--1--|--0--|-----|--0--||--1--|--1--|--0--|--1--||--2--|--0--|--1--|--2--||--3--|--2--|--2--|--2--||--3--|--3--|--2--|--0--||--1--|-----|--0--|-----| (x4)
Verse 2 Chords:
|--0--|--0--|--1----||--1--|--1--|--1----||--2--|--0--|--2----||--2--|--2--|--3----||--0--|--3--|--3----||-----|-----|--1----| (x2)
Bridge:
|--1--|--5--|--4--|--3--|--7--|--5--|--3--||--1--|--5--|--4--|--3--|--7--|--5--|--3--||--2--|--6--|--5--|--4--|--8--|--6--|--4--||--3--|--7--|--6--|--5--|--9--|--7--|--5--||--3--|--7--|--6--|--5--|--9--|--7--|--5--||--1--|--5--|--4--|--3--|--7--|--5--|--3--|
************************************************************************ SUNNA 7% (LIVE) Standard Tuning I just got in from seeing Sunna live In Liverpool in the UK, and from carefully Watching John Harris i have been able to Tab out all the variations for the 'Live' Version of '7%'. As nearly everybody knows, Sunna like to spice up their normal songs When they do them live to give them more kick. It works. Verse: \"I don't remember being dead...\"
|--------0--0--0--0--0--0--000--0------||-----0--1--1--1--1--1--1--111----0----||--------2--2--0--0--2--2--222------0--||--0-----2--2--2--2--3--3--333---------||--------0--0--3--3--0--0--000---------||--------------------------------------|
|--0--0--0--0--0--0--000--0------||--1--1--1--1--1--1--111----0----||--2--2--0--0--2--2--222------0--||--2--2--2--2--3--3--333---------||--0--0--3--3--0--0--000---------||--------------------------------|
Chorus: \"If you're feelin' trust...\"
|--0--0--0--0--------0--0--||--1--1--1--1--0--0--1--1--||--2--2--0--0--1--1--2--2--||--3--3--2--2--2--2--2--2--||--0--0--3--3--2--2--0--0--||--------------0--0--------|
|--1--1--1--1--0--0-------------0--||--3--3--1--1--1--1--0--0-------1--||--2--2--2--2--0--0--1--1-------2--||--0--0--3--3--2--2--2--2-------2--||--0--0--------3--3--2--2-------0--||--------------------0--0----------|
Interlude: \"Know, your brain is better than...\"
|--1-1-1-1----/5-5-4-4-3-3----7--7--xx--5-5--3-3--||--1-1-1-1----/5-5-4-4-3-3----7--7--xx--5-5--3-3--||--2-2-2-2----/6-6-5-5-4-4----8--8--xx--6-6--4-4--||--3-3-3-3----/7-7-6-6-5-5----9--9--xx--7-7--5-5--||--3-3-3-3----/7-7-6-6-5-5----9--9--xx--7-7--5-5--||--1-1-1-1----/5-5-4-4-3-3----7--7--xx--5-5--3-3--|
************************************************************************ If anyone has any Sunna tabs they think are close But not right, mail 'em to me and i'll try and sort Them out. Credit must go to 'Nick Olorenshaw' For helping me out with the last chord on 'I MISS'. I read your tab and it fuckin' rules. SUNNA RULE! A_Violet_Fluid@hotmail.com ************************************************************************ :: Ultimate Guitar Archive :: http://www.ultimate-guitar.com
Tap to rate this tab
 
# A B C D E F G H I J K L M N O P Q R S T U V W X Y Z