Sweet - Love Is Like Oxygen tab

Song: Love Is like Oxygen
Band: Sweet

|----------------|
|Notation Legend:||----------------|
|x:dead note ||~: vibrato ||/: Slide ||----------------|
Intro (8 measures): ------------------- #Synthesizer:#
|-------8~-|--------10~-|-------8-7~--|---------||----10----|-----10-----|----10-------|---------||--9-------|--10--------|--9----------|---------||----------|------------|-------------|---------||----------|------------|-------------|---------||----------|------------|-------------|---------| E A C F A D E A C B
#Guitar:# x2
E|--8-------|---10-------|--8---------|---6-9-8~-|B|--10------|---10-------|--10--------|-6--------|G|--9-------|---10-------|--9---------|----------|D|----------|------------|------------|----------|A|----------|------------|------------|----------|D|----------|------------|------------|----------|
#Bass:# D|-2--------|-3----------|-2----------|----------| Prechorus (8 measures): ----------------------- #Guitar# (8 mesures) [Sixteenth Notes]:
E|------------------|------------------|B|------------------|------------------|G|------------------|------------------|D|--7-x-x-7-x-x-7-6-|--5-x-x-5-x-x-5-6-| x4A|--7-x-x-7-x-x-7-6-|--5-x-x-5-x-x-5-6-|D|--7-x-x-7-x-x-7-6-|--5-x-x-5-x-x-4-6-|
#Bass# (5th to 8th measure):
D|--7-----7-----7-6-|--------------5-6-|A|------------------|------------------| x2D|------------------|--5-----5---------|
#Synthesizer# (5th to 8th measure) [Sixteenth Notes]: Am Am Am Am Am Am Am Am | Gm Gm Gm Gm Gm Gm Gm Gm | x2 Chorus (16 mesures): ------- #Guitar:#
|------------------|------------------|------------------|------------------||----x-x---x-x-----|------------------|----x-x---x-x-----|------------------||----x-x---x-x-----|----x-x---x-x-----|----x-x---x-x-----|----x-x---x-x-----||--7-x-x-7-x-x-7-6-|--5-x-x-5-x-x-5-6-|--7-x-x-7-x-x-7-6-|--5-x-x-5-x-x-5-2-||--7-x-x-7-x-x-7-6-|--5-x-x-5-x-x-5-6-|--7-x-x-7-x-x-7-6-|--5-x-x-5-x-x-5-2-||--7-x-x-7-x-x-7-6-|--5-x-x-5-x-x-5-6-|--7-x-x-7-x-x-7-6-|--5-x-x-5-x-x-5-2-| x2
|------------------|------------------|------------------|------------------||------------------|------------------|------------------|------------------||--7-----7-----7---|--9-----9-----9---|--10----10----10--|--7------9--------||--7-----7-----7---|--9-----9-----9---|--10----10----10--|--7------9--------||--5-----5-----5---|--7-----7-----7---|--8-----8-----8---|--5------7--------||------------------|------------------|------------------|------------------|
#Bass:#
D|--7-----7-----7-6-|--------------5-6-|--7-----7-----7-6-|------------------|A|------------------|------------------|------------------|------------------|D|------------------|--5-----5---------|------------------|--5-----5-----5-2-|
D|------------------|------------------|------------------|------------------|A|------------------|------------------|------------------|------------------|D|--0-----0-----0---|--2-----2-----2---|--3-----3-----3---|--0------2--------|
#Synthesizer:# Am Am Am Am Am Am Am Am | Gm Gm Gm Gm Gm Gm Gm Gm | Am Am Am Am Am Am Am Am | Gm Gm Gm Gm Gm Gm Gm | Dm Dm Dm Dm Dm Dm Dm Dm | Em Em Em Em Em Em Em Em | Fm Fm Fm Fm Fm Fm Fm Fm | Dm Em | x2 Verse (17 measures): -------------------- #Synthesizer:# [Dm Em F C ] until two last measures: [Dm | Em] (The Sythesizer has an effect on it during the 8 first measures that boucnes from one to the next but if you listen closely there is an arpeggio like this:
|--8--8--------8-||--10---10-------||--9-------9-----||------------7---| I think that is what's playing but I'm not sure. After the first 8
the synthesizer|----------------| is doing the 4 chord progression "Dm Em F C" in whole notes).|----------------| Dm C A E A C
#Guitar:# Silent for 15 measures then:
|------------------|------------------||------------------|------------------||--7-7-7-7-7-7-7-7-|--9-9-9-9-9-9-9-9-||--7-7-7-7-7-7-7-7-|--9-9-9-9-9-9-9-9-||--5-5-5-5-5-5-5-5-|--7-7-7-7-7-7-7-7-||------------------|------------------|
#Bass:# Silent for 8 measure then:
D|-----------------|------------------|----------7-------|-----------------|A|--5--------------|--7---------------|--8---------------|--3--------------|
D|-----------------|------------------|----------7-------|-----------------|-----------------|A|--5--------------|--7---------------|--8---------------|--5--------------|--7--------------|
Repeat Chorus ------------- Verse 2 (Same as Verse 1): Except that the last two measures are prolonged into 4 meaning 2 measures of D ------------------------- and 2 measures of E Bridge: Intro with Guitar harmony ------------ ----------------------------------------------------------------------------------------------------------------- Instrumenatl break (3:06 - 4:58) ---------------------------------------------------------------------------------------------------------------- Intro (4 measures): ------------------ #Guitar, Synthesizer:#
|-------------||--8-10-------||--7-9--------| hold E for 4 measures, fade out|--5-7--------||-------------||-------------| D E
#Piano# 2nd Measure: E (whole note) Synthesizer Solo (8 measures): ----------------- #Synthesizer:#
|--12-------10-------8------5-----|--10-------8------7-----7-8-10-||-----13-------12------10-----5---|-----12------10-----8----------||--------14-------11------9-----5-|--------11------9-----9--------||---------------------------------|-------------------------------||---------------------------------|-------------------------------||---------------------------------|-------------------------------| Em Bm Am Am Bm Am Dsus4
|--12-------10-------8------5-----|--10-------7-------3-----------||-----13-------12------10-----5---|-----12------8-----------------||--------14-------11------9-----5-|--------11-----9---------------||---------------------------------|-------------------------------||---------------------------------|-------------------------------||---------------------------------|-------------------------------|
|--12-------10-------8------5-----|--10-------8------7-----3------||-----13-------12------10-----5---|-----12------10-----8----------||--------14-------11------9-----5-|--------11------9-----9--------||---------------------------------|-------------------------------||---------------------------------|-------------------------------||---------------------------------|-------------------------------|
|--3-5------------------5-------|---------------------------------||-------------------------5-----|---------------------------------||---------------------------5---|---------------------------------||-----------------------------7-|---------------------------------||-------------------------------|-7-------------------------------||-------------------------------|---------------------------------| Am
Guitar & Synthesizer Duo: ------------------------- [I] #Acoustic Guitar:#
|------------|-----------------|-------------|--------||-5----------|-----------------|--5----------|--------||----7--5----|--7--5--4---457--|-----7--5----|--7-4---||----------7-|-----------------|-----------7-|------5-||------------|-----------------|-------------|--------||------------|-----------------|-------------|--------|
|----------|--------------|----------|--------||--5-------|--------------|----------|--------||----7-5---|--7-5-4-------|----------|--------||--------7-|--------5-----|--5/7-----|--------||----------|--------------|----------|--------||----------|--------------|----------|--------|
#Synthesizer:# same except variation on end:
|--3-5------------------------------|-4-5-----------------------------||--------------------------------5-7|---------------------------------||----------------------------5-7----|---------------------------------||--------------------------7--------|---------------------------------||-----------------------------------|---------------------------------||-----------------------------------|---------------------------------|
[II] #Acoustic Guitar:#
|--8--6--4--1--|-6--4--3--346-|-8--6--4--1-|-6--3----||--------------|--------------|------------|-------4-||--------------|--------------|------------|---------||--------------|--------------|------------|---------||--------------|--------------|------------|---------||--------------|--------------|------------|---------|
|--8--6--4--1--|-6--4--3------|------------|---------||--------------|----------4---|--4/6-------|---------||--------------|--------------|------------|---------||--------------|--------------|------------|---------||--------------|--------------|------------|---------||--------------|--------------|------------|---------|
#Synthesizer:# Listen to the song to figure out was he's doing, I think he's just playing the same chord in arpeggio with a few variances. [III] #Acoustic Guitar:#
|------------|-----------------|-------------|--------||--4---------|-----------------|--4----------|--------||----6--4----|--6--4--3---346--|-----6--4----|--6-3---||----------6-|-----------------|-----------6-|------4-||------------|-----------------|-------------|--------||------------|-----------------|-------------|--------|
|----------|--------------|----------|--------||--4-------|--------------|----------|--------||----6-4---|--6-4-3-------|----------|--------||--------6-|--------4-----|--4/6-----|--------||----------|--------------|----------|--------||----------|--------------|----------|--------|
#Synthesizer# I'm sorry, I can't figure this out, I'm not a keyboard player ^^ but You can always figure out if are one or just improvise in the key. Band Enters: ------------ [I] #Guitar 1 (disto)#:
|-------------|-------------------|-------------|--------||--8----------|-------------------|--8----------|--------||----10--8----|--10--8--7---7810--|----10--8----|-10-7---||----------10-|-------------------|----------10-|------8-||-------------|-------------------|-------------|--------||-------------|-------------------|-------------|--------|
|----------|--------------|----------|----------8-||--8-------|--------------|----------|-----8-11---||---10-8---|--10-8-7------|----------|------------||-------10-|---------8----|--8/10----|------------||----------|--------------|----------|------------||----------|--------------|----------|------------|
#Guitar 2# | C | G A#B| C | G GF#| F G | A#BC | #Guitar 3# Improvising solo #Bass#: Walking Up Bass line
|-------------|---------|--------------|--------|--------|--------||-------------|---------|--------------|--------|--------|--------||--3----------|----1--2-|--3-----------|--------|--------|-1-2-3--||-------2-3-4-|-5-------|--------2-3-4-|-5--5-4-|--3---5-|--------|
[II] #Guitar 1#
|--12--10--8----|-10--8--7--7810-|--12--10--8----|-10--7----||------------10-|----------------|------------10-|-------8--||---------------|----------------|---------------|----------||---------------|----------------|---------------|----------||---------------|----------------|---------------|----------||---------------|----------------|---------------|----------|
|--12--10--8----|-10--8--7-----|--12--10--8----|-10--8--7-----||------------10-|----------8---|------------10-|-----------8--||---------------|--------------|---------------|--------------||---------------|--------------|---------------|--------------|-|---------------|--------------|---------------|--------------||---------------|--------------|---------------|--------------|
#Guitar 2#
|------------|-----------|--------|--------||--10----8-9-|-10--------|--------|--------||--9--9--7-8-|-9--9--9-8-|-7----9-|-7----9-||--7--9--5-6-|-7--9--9-8-|-7----9-|-7----9-||-----7------|----7--7-6-|-5----7-|-5----7-||------------|-----------|--------|--------|
#Bass#: Walking Bassline that follows guitar 2: End of Instrumental (4:58): -------------------- #Guitar 1:#
|--------||--8/10--||--------||--------||--------||--------|
#Guitar 2:#
|------||------||--5-4-||--5-4-||--3-2-||------|
Prechorus (Just one Time: 4 measures): -------------------------------------- Chorus (16 measures): --------------------- Intro (4 measures): ------------------- Outro: ------ #Guitar#: Plays A and G on 4th string in a funky way. #Bass#: AA AA | GG GG | #Synthesizer# Plays something with these chords:
|--5-7-5--3-||--5-8-5--3-||--5-9-5--4-||-----------||-----------||-----------|
That's it then fade out. I'm sorry about the Synthesizer parts, I couldn't figure them all out, considering I don't actually OWN a synthesizer, I'm doing all this an acoustic guitar ^^. Hope it helps anyway!
Tap to rate this tab
 
# A B C D E F G H I J K L M N O P Q R S T U V W X Y Z