Destroyer tab with lyrics by Sworn Enemy - Easy chords and tabs for guitar

Sworn Enemy – Destroyer tab

Tabbed By : H8myself
Tuning : Eb
Artist : Sworn Enemy
Song : Destroyer

\-slade
*- PM
p-pull off
h-hammer on

|--------------------------------------------------------||--------------------------------------------------------||--------------------------------------------------------||--2--------\-\-\-\--------------------------------------||--2--------\-\-\-\--------------------------------------||--0--------\-\-\-\--------------------------------------| (long pick slade)
|-----------------------------------------------------------------||-----------------------------------------------------------------||-----------------------------------------------------------------||-----------------------------------------------------------------| 6x|-----2------2-------2-----2------6-6-6------5-5-5----------------||-0-1-0--0-1-0--0-1-0--0-1-0--0-4-4-4-4--0-3-3-3-3----------------| * * * * * * * * * * * *
|------------------------------------------------------||------------------------------------------------------||------------------------------------------------------||------------------------------------------------------| 4x|-3----------3----------3---------10-9-6-5-------------||-1-00000000-1-00000000-1-00000000-8-7-4-3-------------| ******** ******** ******** * * * *
|-----------------------------------------------------------------||-----------------------------------------------------------------||-----------------------------------------------------------------||-----------------------------------------------------------------| 8x|-----2------2------2------2------6-6-6------5-5-5----------------||-0-1-0--0-1-0--0-1-0--0-1-0--0-4-4-4-4--0-3-3-3-3----------------| * * * * * * * * * * * *
|----------------------------------------------------||----------------------------------------------------||-------------------------------------------------|\-||----------------------------------------------------| \|-3-2---------3-2---6-5---3-6-3-2--------------------| \|-1-0-0-0-0-0-1-0-0-4-3-0-1-4-1-0--------------------| \ * * * * * * \
/ 2x|---------------------------------------------------| /|---------------------------------------------------| /|---------------------------------------------------||---------------------------------------------------||--------10-9---6-5---3-6-3-2-----------------------||-0-0-0-0-8-7-0-4-3-0-1-4-1-0-----------------------| * * * * * *
|-------------------------------------------------||-------------------------------------------------||-------------------------------------------------||-------------------------------------------------||---------3-2---6-5---3-6-3-2---------------------||-0-0-0-0-1-0-0-4-3-0-1-4-1-0---------------------| * * * * * *
|-------------------------------------------------||-------------------------------------------------||-------------------------------------------------||-------------------------------------------------||--------10-9---6-5---3-6-3-2---------------------||-0000000-8-7-0-4-3-0-1-4-1-0---------------------| ******* * *
|-------------------------------------------------||-------------------------------------------------||-------------------------------------------------||-------------------------------------------------||---------3-2---6-5---3-6-3-2---------------------||-000-000-1-0-0-4-3-0-1-4-1-0---------------------| *** *** * *
|------------------------------------------------------------||------------------------------------------------------------||------------------------------------------------------------||------------3-2-----5-4-----7-6-----9-8---------------------||------------1-0-3-2-3-2-5-4-5-4-7-6-7-6-9-8-----------------||-000-000--------1-0-----3-2-----5-4-----7-6-----------------| *** ***
This tabs are whitout solo and outro part .... I hope u like it ..please rate ...thanks using this tabs ... When somebody tabbed solo please submite it :)
Please rate this tab:
x1.0