System Of A Down - Highway Song tab

System of a Down
Album:Steal This Album
Drop C Tuning (CGCFAD)

Riff 1x2--------------------------|--------------------------|--------------------------|--------------------------|0-0----0-0----0-0----0-0--|0-0----0-0----0-0----0-0--|* * * * * * * *
Riff 1a
x2--------------------------------|--------------------------------|--------------------------------|--------------------------------|0-0-000-0-0-00-0-0-000-0-0-00---|0-0-000-0-0-00-0-0-000-0-0-00---|* * * * * * * *Riff 2
x2--------------------------|--------------------------|--------------------------|----5--5-----5-5----------|0-0--5--------------------|0-0------0-0--------------|* * hh h * * h h
Riff 3
--------------------------|10----9----2----5---------|10----9----2----5---------|12----11---2----5---------|0-----0----0----3---------|--------------------------|
Riff 4
--------------------------------4------------------|6---8---6---5---------------------5--------2-----5-|--7---7---7---6-----13-----5--------6------2-----5-|----7---7---7---6---11-------6--------6----2-----5-|-------------------------------------------0-----3-|---------------------------------------------------|
Riff 5
----------------------------------------|----------------------------------------|----------------------------------------|0-7-8-7-0-0-7-7-8-7---6-7-6-----6-6-7-6-|--------------------4-------4-4---------|----------------------------------------|* * * * * * * * * * * * * * * * * * * *
----------------------------------------|----------------------------------------|----------------------------------------|----------------------5-6-5-----5-5-6-5-|0-7-8-7-0-0-7-7-8-7-3-------3-3---------|----------------------------------------|* * * * * * * * * * * * * * * * * * * *
Riff 6
----------------------------------------|5--5--5--5------------------------------|5--5--5--5------------------------------|5--5--5--5------------------------------|3--3--3--3------------------------------|----------------------------------------|
Riff 7-----------------------------------------------|---15-17----15--17-15----15-17----15--17-15----|14--------14---14------13-------13---13--------|-----------------------------------------------|-----------------------------------------------|-----------------------------------------------|
------------------------------------------------|---18-17----18--18-17------18-17---18--18-17----|15--------15--15-------14--------14--14---------|------------------------------------------------|------------------------------------------------|------------------------------------------------|
Riff 8----------------------------------------|----------------------------------------|----------------------------------------|0--------11--------7--------10----------|0--------11--------7--------10----------|0--------11--------7--------10----------|
Riff 8b(No ones. Just tens and elevens <10&11>)---------------------------------------|---------------------------------------|---------------------------------------|---------------------------------------|0-0-000-0-0-00-11-11-111111-11-11-1111-|0-0-000-0-0-00-11-11-111111-11-11-1111-|
* * * * * * * *---------------------------------------|---------------------------------------|---------------------------------------|---------------------------------------|7-7-777-7-7-77-10-10-101010-10-10-1010-|7-7-777-7-7-77-10-10-101010-10-10-1010-|* * * * * * * *
Thats it. Tell me what u think, or email me : dOwnstOnE@netscape.net
Tap to rate this tab
 
# A B C D E F G H I J K L M N O P Q R S T U V W X Y Z