Tchaikovsky Piotr – Dance Of The Sugarplum Fairy tab

#

Date: Sun, 23 Nov 1997 10:30:12 -0800
From: Michael and Victor Zefas 
Subject: Classical TAB:  Tchaikovsky's Dance of the Sugar Plum Fairy (best

This TAB transcription was created using TAB MASTER version 1.0
If you enjoy using this program, please consider telling the author
about it: Ofir Zwebner, e-mail: ofirz1@ccsg.tau.ac.il
                    snail-mail: Ehoud 10, Tel Aviv, 69936, Israel

--------------------------------------------------------------------
This is a short guitar-transcribed version of Dance of the Sugar Plum
Fairy by Peter L. Tchaikovsky.  I'm sure everybody knows it from "Home Alone".
It's in the key of E minor and is in 2/4 time.  
Notation:   The  "e" means the note(s) below it are eighth notes while the
"s" means the note(s) below it are sixteenth notes.  It's a little hard to
accurately transcribe it because of the mix of 8th and 16th notes.  Another
thing to note is that and 8th note is followed by two spaces while a 16th note
is followed by only 1 space.  THis might help. It's an eerie awesome song...
enjoy! 


e e e e e e e e e s s e e e e s s e (repeat once)e:---0-----2-----3----------||----3-0-3--2-|-----0---------|B:---------------------4----||-------------|--4-----3-3-3--|G:---0-----2-----3-----2---*||*------------|---------------|D:-------------------------*||*------------|---------------|A:--------------------------||----2------0-|------------2--|E:0-----0-----0-----0-------||-0------0----|--2--3--0------|
s s e s s e s s s s e s s e s s e e e e s s e
e:---------------|---0---0---------|--------------|-------3-3-3--|B:-2-2-2--1-1-1--|-0---1----0------|--------------|-1--0---------|G:---------------|-----------------|----0----0----|--------------|D:---------------|-----------------|------2-----4-|----2------2--|A:-----1------0--|-----0-------3-2-|-1-------0----|-------1------|E:-0------0------|-0--------0------|--------------|-3------------|
CII--------| s s e s s e s s s s e e s s e e e e s s e
e:-2-2-2--0-0-0--|---2---2---------|----3-0-3--2--|----0---------|B:---------------|-4---5---4-------|----0---------|-4-----3-3-3--|G:---------------|-----------------|-----------2--|----0------4--|D:-----4------4--|-----------------|--------------|-4-----2------|A:-2------4------|-2---3---2-------|--------------|--------------|E:---------------|------------3-2--|-0------0-----|--------------|
s s e s s e s s s s e s s e s s e e e s s e e
e:---------------|---0---0--------|----0---0-----|-------------|B:-2-2-2--1-1-1--|-0---1---0------|------2----4--|----3-0-3--2-|G:-----3------2--|-----2----------|--------------|-------------|D:-2------2------|-2-------2--2-0-|--------4-----|-------------|A:---------------|----------------|-4------------|-2-----------|E:---------------|----------------|--------------|--------0----|
e s s e e e s s e
e:-------------|---------------------|| My email address is: B:----1---1--0-|------0--------------|| mellowg@cpros.comG:------2------|--------------------*||D:--------0----|----1---2-(8th-Rest)*|| I'd love to hear from you if you haveA:-0-----------|---------------------|| any suggestion or corrections. Thanks!E:-------------|-3--2---0------------||
Reminder: I did make this with Tab Master becasue it's an awesome program. I recommend you to get it. I'm going to try to send him some money soon.
P.I. Tchaikovsky: The Nutcracker Suite/ Dance Of The Sugar Plum Fairy---------------------------------------------------------------------celesta and piano arranged for two guitars. (the upper six lines belongto the piano's part) | | | | | | | | : quarter beats|---------------------------------|----| 0/|-----0-------1-------2-------1---|----| /0 : repeat last bar|-----0-------2-------3-------2---|-0/-||-2-------2-------2-------2-------|-/0-||---------------------------------|----||---------------------------------|----|
|
|-----0-------2-------3-----------|----||-----------------------------4---|----||---------------------------------|-0/-||---------------------------------|-/0-||---------------------------------|----||---------------------------------|----|
|-------------------------------------0-------2---0---2---3-------||-----0-------1-------2-------3-------2-------4---5---5---5-------||-----0-------2-------3-------4-----------------------------------||-2-------2-------2-------2-------2-------2-------------------20--||---------------------------------------------------------------321|-----------------------------------------------------------------|
|
|---------------------------------------------------0---0---------||-----8---8---7---4---5---------------------------0---1---0-------||-------9-----------------7-7-7---6-6-6---5-5-5---0---2---0-------||-----9---9---7---4---5---6-6-6---5-5-5---4-4-4-------------------||-----------------------------------------------------------------||-----------------------------------------------------------------|
|---------------------------------------------------------------||---------------------------------------------------------------||---------------------------------------------------------------||-------------------------------4-------------------4---4-------|1-------0---------------------------------------2---3---2---20--||---------------3-------2---------------2-------6-------------320
|
|-----------------------3-3-3---1-1-1---0-0-0-----2---2---------||-------------------0---2-2-2---0-0-0---1-1-1---4---5---4-------||---5-2-5---4---5---0---3-3-3---1-1-1---2-2-2---4---3---4-------||---3---3---3---4---2---2-2-2---0-0-0---4-4-4-------------------||---------------6-----------------------------------------------||---------------------------------------------------------------|
|-----------------------------------0-------2---0---2---3-------||---0-------1-------2-------3-------2-------4---5---5---5-------||---0-------2-------3-------4-----------------------------------||-------2-------2-------2-------2-------2-------------------5420||---------------------------------------------------------------40---------------------------------------------------------------|
|
|-------------------------------------------------0---0---------||---8---8---7---4---5---------------------------0---1---0-------||-----9-----------------7-7-7---6-6-6---5-5-5---0---2---0-------||---9---9---7---4---5---6-6-6---5-5-5---4-4-4-------------------||---------------------------------------------------------------||---------------------------------------------------------------|
|-----------------------------------------------------------2------||-----------------------------------------------------------1------||-----------------------------------------------------------2------||---4-------421-----2-------20------0-------0---------------0------|4--------------42-------------420------------320-------------------||-----------------------------------------------3---2---0----------|
|
|------------------------------------------------------------------||--------------------------------------------------------------1---||------------------------------------------------------4------2----||-----------------------------------------------------4-----04-----||---7-4-7---6-------5-2-5---4-------3-0-3---2--------6--7----------||---6---6---5-------4---4---3-------2---2---3-------7--------------|
|----------------------------0---------------0----||----0-------1-------0------1-------04------1-----||---2-------2-------2------2-------2-------2------||-04------04------14------3-------4-------3-------||-------------------------------------------------||-------------------------------------------------|
|
|--------------------------------0---------------0||--------0-------1-------0------1-------04------1-||-------2-------2-------2------2-------2-------2--||-----14------04------14------3-------4-------3---||-------------------------------------------------||-------------------------------------------------|
|-----------3-------2-------3-------2----||--04------4-------4-------4-------4-----||-2------25------24------25------24------||4---------------------------------------||----------------------------------------||----------------------------------------|
|
|---------------3-------2-------3-------2||------04------4-------4-------4-------4-||-----2------25------24------25------24--||----4-----------------------------------||----------------------------------------||----------------------------------------|
|----2-------2-------2-------2--------||---3-------4-------3-------4---------||-25------24------25------24----------||-------------------------------------2|---------------------------------20--||-----------------------------------32|
|
|------25-------57------5-------57----||-----3-------47-------7------47------||---------------------7---------------||-------------------------------------||-------------------------------------||-------------------------------------|
|-----------------------------------0-------2---0---2---3-------||---0-------1-------2-------3-------2-------4---5---5---5-------||---0-------2-------3-------4-----------------------------------|2-------2-------2-------2-------2-------2-------------------20--||-------------------------------------------------------------321|---------------------------------------------------------------|
|
|-------------------------------------------------0---0---------||---8---8---7---4---5---------------------------0---1---0-------||-----9-----------------7-7-7---6-6-6---5-5-5---0---2---0-------||---9---9---7---4---6---6-6-6---5-5-5---4-4-4-------------------||---------------------------------------------------------------||---------------------------------------------------------------|
|---------------------------------------------------------------||---------------------------------------------------------------||---------------------------------------------------------------||-------------------------------4-------------------4---4-------|1-------0---------------------------------------2---3---2---20--||---------------3-------2---------------2-------6-------------320
|
|-----------------------3-3-3---1-1-1---0-0-0-----2---2---------||-------------------0---2-2-2---0-0-0---1-1-1---4---5---4-------||---5-2-5---4---5---0---3-3-3---1-1-1---2-2-2---4---3---4-------||---3---3---3---4---2---2-2-2---0-0-0---4-4-4-------------------||---------------6-----------------------------------------------||---------------------------------------------------------------|
|-----------------------------------0-------2---0---2---3-------||---0-------1-------2-------3-------2-------4---5---5---5-------||---0-------2-------3-------4-----------------------------------||-------2-------2-------2-------2-------2-------------------5420||---------------------------------------------------------------|0---------------------------------------------------------------|
|
|--------------------------------------------------0---0--------||---8---8---7---4---5---------------------------0----1---0------||-----9-----------------7-7-7---6-6-6---5-5-5---0----2---0------||---9---9---7---4---5---6-6-6---5-5-5---4-4-4-------------------||---------------------------------------------------------------||---------------------------------------------------------------|
|---------------------------------------------------------------0-----||--------------------------------------------------------------0------||-------------------------------------------------------------0-------||----4-------421-----2-------20------0-------0---------------2--------||4--------------42-------------420------------320---------------------||------------------------------------------------3---2---0------------|
|
|------------------------------------------------------------------12-||-----------------------------------------------------------------12--||-------------------------------------------------------4--------12---||------------------------------------------------------4--------------||----7-4-7---6-------5-2-5---4-------3-0-3---2--------6--7------------||----6---6---5-------4---4---3-------2---2---3-------7----------------|arranged by Pinter Denes (dpinter@eik.bme.hu)
Notes: 1) This TAB does not consist any pull of and hammer on notations. 2) This arrangement is based on a MIDI-file available at http://www.dtx.net/~raborn 3) Feel free to transpose some parts up/down an octave
Please rate this tab:
x1.0