Tenacious D - Kickapoo tab version 1

Made by Tenacious D
Recorded in Tenacious D, The Pick of Destiny
Tabbed by S. Holbek

Standart tuning (E)
x = mute (strum while having fingers on the string
so that it does not make any sound)

JACK BLACK

A long ass fucking time ago in a town called Kickapoo
there lived a humble family religious through and through
but yay there was a black sheep and he knew just what to do.
His name was young JB and he refused to step in line
a vision he did see of fucking rocking all the time
he wrote a tasty jam and all the planets did align.
............................................................_
|---1---1-1--3--1-0--1-----1---1-1--3--1-0--1------------------ | \|---3---3-3--3--3-3--3-----3---3-3--3--3-3--3--------------| -- ||---2---2-2--2--2-2--2-----2---2-2--2--2-2--2--------------| -- ||-0----------------------0---------------------------------| -- ||----------------------------------------------------------| -- ||----------------------------------------------------------| -- |
.............................................................||----------------------------------------------------------| ----- ||---1---1-1--3--1-0--1-----1---1-1--3--1-0--1--------------| ----- ||---2---2-2--2--2-2--2-----2---2-2--2--2-2--2--------------| --- | 3x|---2---2-2--2--2-2--2-----2---2-2--2--2-2--2--------------------- | /|-0----------------------0---------------------------------| ----- ||----------------------------------------------------------| ----- |
.............................................................||---1---1-1-1--1--1--1-1-1---||-----------------3--3-3-3---| -- ||---1---1-1-1--1--1--1-1-1---||----1--1-1-1-----0--0-0-0---| -- ||---2---2-2-2--2--2--2-2-2---||----0--0-0-0-----0--0-0-0---| -- ||-3-3---3-3-3--3--3--3-3-3---||----2--2-2-2-----0--0-0-0---| -- ||----------------------------||-3--3--3-3-3-----2--2-2-2---| -- ||----------------------------||--------------3--3--3-3-3------- |/
3rd time ends with|--------------3------3-3-3--||----1--1-1-1--0------0-0-0--||----0--0-0-0--0------0-0-0--||----2--2-2-2--0------0-0-0--||-3--3--3-3-3--2------2-2-2--||--------------3------3-3-3--|JACK BLACK
Oh the dragons balls were blazing as I stepped into his caveand I sliced his fucking cockles with a long and shiny baldetíwas I who fucked the dragon fuckalising fuckalooand if you try to fuck with me then I shall fuck you too........................................._|------------------------------------------ | \|--------------------------------------| -- ||--------------------5--5--5-5-5--5--5-| -- ||-7--7--7-7-7--7--7--5--5--5-5-5--5--5-| -- ||-7--7--7-7-7--7--7--3--3--3-3-3--3--3-| -- ||-5--5--5-5-5--5--5--------------------| -- |
..........................................>- 2x|--------------------------------------| -- ||--------------------------------------| -- ||--------------------------------------| -- ||-7--7--7-7-7--7--7--8--8--8-8-8--8--8-| -- ||-7--7--7-7-7--7--7--8--8--8-8-8--8--8-| -- ||-5--5--5-5-5--5--5--6--6--6-6-6--6--6----- |/
NO ONE
|-------------------||-------------------||-------------------||-7--7--7-7-7--7--7-||-7--7--7-7-7--7--7-||-5--5--5-5-5--5--5-|
JACK BLACK Gotta get it on the party zone I gos to shoot a load in the party zone Gotta lick a toad in the party zone Gotta suck and choke in the party zone
|----------------------------------------------||----------------------------------------------||----------------------------------7-x-----7---||-x-x-10-10-x-x-5--5-5--5--5-x-7-x-7-x-7-x-5-7-||-x-x-10-10-x-x-5--5-5--5--5-x-7-x-5-x-7-x-5-5-||-x-x--8--8-x-x-3--3-3--3--3-x-5-x---x-5-x---5-|4x
MEAT LOAF You disobeyed my orders son, why were you ever born your brotherís ten times better than you, Jesus loves him more this music that you play for us comes from the depths of hell rock ní rollís the devilís work he wants you to rebel youíve become a mindles puppet beelzebub will pull the strings your heart will lose direction and chaos it will bring
|--------------------------------------------|------------------||--------------------------------------------|------------------||------5---------------10-----------3--------|------6-----------||-3-5--5--5-5-5--10-10-10-1010---3--3--3-3-3ó|-6--6-6--6-6------||-3-5--3--5-5-5--10-10--8-1010---3--1--3-3-3-|-6--6-4--6-6------||-1-3-----3-3-3---8--8-----8-8---1-----1-1-1-|ó4--4----4-4------|4x
4th time ends with
|------------------||------------------||------------------||-6--6--6--6-------||-6--6--6--6-------||-4--4--4--4-------|
NO ONE
|-------------------||-------------------||-------------------||-5--5--5-5-5--5ó-5-||-5--5--5-5-5--5-ó5-||-3--3--3-3-3--3ó-3-|
MEAT LOAF You better shut your mouth, you better watch your tone Youíre grounded for a week with no telephone donít let me hear you cry, donít let me hear you moan you gotta praise the lord when youíre in my home
|----------------------------------------------||----------------------------------------------||----------------------------------5-x-----5---||-x-x--8--8-x-x-3--3-3--3--3-x-5-x-5-x-5-x-5-5-||-x-x--8--8-x-x-3--3-3--3--3-x-5-x-3-x-5-x-3-5-||-x-x--6--6-x-x-1--1-1--1--1-x-3-x---x-3-x---3-|4x
JACK BLACK Dio can you hear me I am lost and so alone Iím asking for your guidance wonít you come down from your throne I need the tight compadre who will teach me how to rock my father thinks youíre evil but man he can suck a cock rock is not the devils work itís magical and rad Iíll never rock as long as I am stock here with my dad
This has almost no mistakes.|-----3-3h5p3--------6---6---------5-----2h4p2------4-----4----||---3---------3-0------3-4--4-3------2---------2------1---2--1-||-0----------------3-----3-------2-----2----------1-----1-1----||--------------------------------------------------------------||--------------------------------------------------------------||--------------------------------------------------------------|
|---3------------6---6---------------5--------4-----4-4--------||-----3---0-3------3-4--4-3----2-0-----2-0------1---1h2--1-----||-0-----0------3-----3-------2-----2--------1-----1-1-1--------||--------------------------------------------------------------||--------------------------------------------------------------||--------------------------------------------------------------|
|---3------------6---6---------------5------4--4--4--4---------||-----3---0-3------3-4--4-3----2-0-----2-0--2--2--2--2---------||-0-----0------3-----3-------2-----2--------1--1--1--1---------||--------------------------------------------------------------||--------------------------------------------------------------||--------------------------------------------------------------|
NO ONE
|--------------------------------------------------------------||--------------------------------------------------------------||--------------------------------------------------------------||-5--5-5-5--5---6--6-6-6--6---3--3-3-3--3--8--8-8-8--6---------||-5--5-5-5--5---6--6-6-6--6---3--3-3-3--3--8--8-8-8--6---------||-3--3-3-3--3---4--4-4-4--4---1--1-1-1--1--6--6-6-6--4---------|
DIO I hear you brave young Jables you are hungry for the rock but to learn the ancient methods secret doors you must unlock escape your fatherís clutches on this oppresive neighborhood on a journey you must go to find the land of hollywood
|----------------------------------------------------------------------||----------------------------------------------------------------------||-5---5---5---3--3-3-3-3--3--3-3-3-3-3-3--3--5---5---5---3--3--3--3--5-||-5---5---5---3--3-3-3-3--3--3-3-3-3-3-3--3--5---5---5---3--3--3--3--5-||-3---3---3---1--1-1-1-1--1--1-1-1-1-1-1--1--3---3---3---1--1--1--1--3-||----------------------------------------------------------------------|
DIO In the city of falling angels, where the ocean meets the sand you will form a strong alliance, and the worldís most awesome band to find your fame and fortune through the valley you must go you will face your inner demons now go my son and roooock
|-----------------------------------------------------------||-----------------------------------------------------------||-5----------5------------5-----------------5---------------||-5----3--6--5----3--5-6--5----3--3--6-6-6--5----3--3--6--6-||-3----3--6ó-3----3--5-6--3----3--3--6-6-6--3----3--3--6ó-6-||------1--4-------1--3-4-------1--1--4-4-4-------1--1--4--4-|
NO ONE
|----------------------------------------------------------------------------||----------------------------------------------------------------------------||-------8-8-8-8-8--8-7--------8-8-8-8-8--8-7-------8-8-8-8-8--8-7--5--7-8-10-||-5--5--8-8-8-8-8--8-7--5--5--8-8-8-8-8--8-7-5--5--8-8-8-8-8--8-7--5--7-8-10-||-5--5--6-6-6-6-6--6-5--5--5--6-6-6-6-6--6-5-5--5--6-6-6-6-6--6-5--3--5-6--8-||-3--3------------------3--3-----------------3--3----------------------------| 2x
JACK BLACK So he bailed from fucking Kickapoo with hunger in his heart and he journeyed far and wide to find the secrets of his art but in the end he knew that he would find his counterpart
|-----------------------------------------||-----------------------------------------||-----7---3-3-3-3-3-3-3-3-5-5-5-5-5-5-5-5-||-5---7---3-3-3-3-3-3-3-3-5-5-5-5-5-5-5-5-||-5---5---1-1-1-1-1-1-1-1-3-3-3-3-3-3-3-3-||-3---------------------------------------|
JACK BLACK rooooooock ro-o-o-o-ooooooock ro-o-o-o-hayayaya hayayaya hayayaya hayayaya hayayaya hayayaya hay rooock
|----------------------------------------------------------------------------||----------------------------------------------------------------------------||-------8-8-8-8-8--8-7--------8-8-8-8-8--8-7-------8-8-8-8-8--8-7--5--7-8-10-||-5--5--8-8-8-8-8--8-7--5--5--8-8-8-8-8--8-7-5--5--8-8-8-8-8--8-7--5--7-8-10-||-5--5--6-6-6-6-6--6-5--5--5--6-6-6-6-6--6-5-5--5--6-6-6-6-6--6-5--3--5-6--8-||-3--3------------------3--3-----------------3--3----------------------------|3x
|--------------------------------------||--------------------------------------||--------------------------------------||--------------------------------------||--------------------------------------||-3333333333333333333333333tremolopick-|really that is as many times as the G is played.
Tap to rate this tab
 
# A B C D E F G H I J K L M N O P Q R S T U V W X Y Z