The B-52`s - Follow Your Bliss tab

the timing and bending ain't here... it's in yer head somewhere...

FOLLOW YOUR BLISS

---14----14----14----14---14----14----14----14-------14------14-| -12----12----12----12-------12----12----12----12---12------12---| ---------------------------------------------------------13-----| ----------------------------------------------------------------| ----------------------------------------------------------------| ----------------------------------------------------------------|
------------------------------------------------------------| ------------------------------------------------------------| ------------------------------------------------------------| --------------------------------3--3----355--534/5-5--5313--| ------------------------------35-3----35--------------------| -0--02022-020--0--02022-020---------------------------------|
----------------------------------------------------| ----------------------------------------------------| ----------------------------------------------------| ---------------3---5----355--535/7-7-753--3h53------| -------------35-3-----35----------------------5-----| -02022-020---------------------------------------20-|
-----------------------------------------------------| -----------------------------------------------------| -----------------------------------------------------| ---3--------------0-0--------3--------------0-0------| -35-2/33311----------------35-2/33311----------------| -----------33---02-2-220-------------33---02-2-220---|
---14----14----14----14---14----14----14----14-------14------14-| -12----12----12----12-------12----12----12----12---12------12---| ---------------------------------------------------------13-----| ----------------------------------------------------------------| ----------------------------------------------------------------| ----------------------------------------------------------------|
-------------------------------------------------------------| -------------------------------------------------------------| -------------------------------------------------------------| ----------------------------------3-3-----355-53---------3---| --------------------------------35-3----35------2/3-3--31-3--| -0--02022-020---0--02022-020---------------------------------|
------------------------------------------------------| ------------------------------------------------------| ------------------------------------------------------| ---------------3---5----355-535/77-75353--3h53--------| -------------35-3-----35----------------------5-------| -02022-020----------------------------------------20--|
-----------------------------------------------------| -----------------------------------------------------| -----------------------------------------------------| ---3---------------0-0--------3---------------0-0----| -35-2/33-311----------------35-2/33-311--------------| ------------33---02-2-220--------------33---02-2-220-|
-----------------------------------------------------| -----------------------------------------------------| -----------------------------------------------------| ---3---------------0-0--------3---------------0-0----| -35-2/33-311----------------35-2/33-311--------------| ------------33---02-2-220--------------33---02-2-220-|
------------------------------------------------------| ------------------------------------------------------| ------------------------------------------------------| ---3---------------0-0--------3---------------0-0-----| -35-2/33-311----------------35-2/33-311---------------| ------------33---02-2-220--------------33---02-2-220--|
-------------------------------14----14----14----14---| -----------------------------12----12----12----12-----| ------------------------------------------------------| ---3---------------0-0--------------------------------| -35-2/33-311------------------------------------------| ------------33---02-2-220-----------------------------|
-14----14----14----14--------14------14-------------------| ---12----12----12----12----12------12---------------------| ---------------------------------13-----------------------| ----------------------------------------------------------| ----------------------------------------------------------| -------------------------------------------0--02022--020--|
Tap to rate this tab
 
# A B C D E F G H I J K L M N O P Q R S T U V W X Y Z