Man Up tab with lyrics by The Blue Van - Easy chords and tabs for guitar

The Blue Van – Man Up tab

Thats the way i heard it.
all comments please to molotok93@gmx.de
HF and GL with it!

-----------------------------------------------|-----------------------------------------------|-----------------------------------------------|------0-h3-p2-p0-h2-p0-------0-h3-h2-p0--h2-p0-|(2x)-2--2-------------------2--2-------------------|-----------------------------------------------|
--------------------------------------|--------------------------------------|--------------------------------------|------0-h3-p2-p0-h2-p0---------0------|-2--2------------------------0---0-2--|---------------------------2----------|
While the drum plays and he sings...
----------|----------|----------|----------|---2------|----------|
While the organ plays...
--------------------------------------|--------------------------------------|--------------------------------------|-------------------7------------------|--2----5----7----9--------------------|--------------------------------------|
--------------------------------------|--------------------------------------|--------------------------------------|--------------------------------------|--2----5----7----9---4-4-4------------|--------------------------------------|
While the drum plays and he sings...
----------|----------|----------|----------|---2------|----------|
Solo, IIguitar(1:42)
----------------------------------------|-/12-/12-12-10-----/12--/12--12--10-----|-/11-/11-------11--/11--/11---------11--|----------------------------------------|----------------------------------------|----------------------------------------|
-----------------------12--10--------|---------|-/12--/12---12--10-----------12--10- |-----/12-|-/11--/11----------11--------------- |-----/11-|-------------------------------------|(2x)-----|-------------------------------------|---------|-------------------------------------|---------|
Please rate this tab:
x1.0