The City On Film - Secret Santa Cruz tab

Song: Secret Santa Cruz
Tabber: Andrew Biles

Ok, well this is a cover of a Lifter Puller track off the 'I'd rather be wine drunk' EP.
It's a nice one to play.  I've put the basic order down, so you just need to work out
how many times each section has been played, which is managable, so enjoy.


|----------------------------------------------------------||----------------------------------------------------------||---------------------------------------0-------0--4-------||-------0-------0-------0-------0------------------4--4-4--||---2-------2-------4-------4-------7-------7---------5-5--||-3---3---3---3---5---5---5---5---8---8---8---8------------|
|-------------------------------------------------||-------------------------------------------7-----||-------0-------0---------0---------0--0----6-----||--------------------------------------2----0-----||---7-------7--------9---------9-------2----5-----||-8---8---8---8---10---10---10---10----0----------|
|----------------------------------------------------------||----------------------------------------------------------||---------------------------------------0-------0--4-------||-------0-------0-------0-------0------------------4--4-4--||---2-------2-------4-------4-------7-------7---------5-5--||-3---3---3---3---5---5---5---5---8---8---8---8------------|
|-------------------------------------------------||-------------------------------------------7-----||-------0-------0---------0---------0--0----6-----||--------------------------------------2----0-----||---7-------7--------9---------9-------2----5-----||-8---8---8---8---10---10---10---10----0----------|
|--------------------------------------||--------------------------------------||-------0-------0---------0---------0--||--------------------------------------||---7-------7--------9---------9-------||-8---8---8---8---10---10---10---10----|
|---------------------------------------||---------------------------------------||-------------------------------------4-||-------4-----------4-----------------4-||---------5-----------5-------2---2h3---||-3-3-3-----3-2-2-2-----2-0-0---0-------|
|-----------------------------------------------------------------||-----------------------------------------------------------------||-----------------------------------------------------------------||-------------------------------------------------5-5-5-5-5-5-5-5-||-5-5-5-5-5-5-5-5-5-5-5-5-5-5-5-5-7-7-7-7-7-7-7-7-3-3-3-3-3-3-3-3-||-3-3-3-3-3-3-3-3-3-3-3-3-3-3-3-3-5-5-5-5-5-5-5-5-----------------|
|---------------------------------------||---------------------------------------||-------------------------------------4-||-------4-----------4-----------------4-||---------5-----------5-------2---2h3---||-3-3-3-----3-2-2-2-----2-0-0---0-------|
|---|---|---|---|-2-|-3-
any questions? andrewbiles@hotmail.com
Tap to rate this tab
 
# A B C D E F G H I J K L M N O P Q R S T U V W X Y Z