The Classic Crime - Salt In The Snow tab version 1

Drop Db

The x's in the bridge are to show timing. Don't actually mean anything.


The intro part 1 for Guitar 1 is indeed correct. In the song the base note 
of part 1 is Ab and Db, but live the guitarist plays intro part 2 for both
parts. Intro part 1 and Intro part 2 are exactly the same except for those base 
notes, and fretting.

myperuba@yahoo.com


Intro
               
Guitar 1 2x Cut Capo 2|----------------------------------------------------------||----------------------------------------------------------||-------2----2----2----2----2----2---2---2---2---2---2---2-||----12---12---12---11---11---11---9---9---9---7---7---7---| x3|----------------------------------------------------------||----------------------------------------------------------|
|----------------------------------------------------------||----------------------------------------------------------||-------2---2---2---2---2---2---2---2---2----2----2----2---||-----4---4---4---7---7---7---9---9---9---11---11---11-----||----------------------------------------------------------||----------------------------------------------------------|
Intro Part 2
|----------------------------------------------------------||----------------------------------------------------------||----7---7---7----6---6---6----4---4---4----2---2---2------||------0---0---0----0---0---0----0---0---0----0---0---0----| x3|----------------------------------------------------------||----------------------------------------------------------|
|--------------------------------------------------------||--------------------------------------------------------||---------------2---2---2----4---4---4---6---6---6-------||----0---0---0----0---0---0----0---0---0---0---0---0-----||--9---9---9---------------------------------------------||--------------------------------------------------------|
Verse 2x
|----------------------------------------------------------------||----------------------------------------------------------------||--7---7---7---7---7---7---9---9---9---6---6---6-----------------||----0---0---0---0---0---0---0---0---0---0---0---0---------------| x3|----------------------------------------------------------------||----------------------------------------------------------------|
|----------------------------------------------------------------||----------------------------------------------------------------||--4---4---4---4---4---4---2---2---2---2---2---2-----------------||----0---0---0---0---0---0---0---0---0---0---0---0---------------| |----------------------------------------------------------------||----------------------------------------------------------------|
PreChorus
|----------------------------------------------------------------||----------------------------------------------------------------||--2-------------------------------------------------------------||--0-------------------------------------------------------------| |----------------------------------------------------------------||----------------------------------------------------------------|
Repeat Intro Part 2 For Chorus Repeat Verse Through Chorus Bridge
|------------------------------------------------------------------||-----------7-7-7-7-7-7-7-5-----x-x-5----------------------7p8-7p8-||--4------------------------7-6------------------------------------||--2----------------------------------0-7-7-7-5-4-5-4-2-0----------| |--2---------------------------------------------------------------||--2---------------------------------------------------------------|
|----------------------------------------------------------------||-10-x-x-10-x-x-10-x-x-8-x-x-7-x-x-8-x-x-5-x-x-5-x-x-5-x-x-5-x-x-||----------------------------------------------------------------||----------------------------------------------------------------| |----------------------------------------------------------------||----------------------------------------------------------------|
Chorus 3 Rest 4 Bars
|--------------------------------||--------------------------------||-7--6--4--2-----2--4--6---------||-------------4------------------| |--------------------------------||--------------------------------|
Repeat Chorus for Interlude Repeat Chorus Outro
|----------------------------------------------------------------||----------------------------------------------------------------||----------7---7---7---7---7---7---6---6---6---9---9---9---------||------------0---0---0---0---0---0---0---0---0---0---0---0-------| 2x|----------------------------------------------------------------||----------------------------------------------------------------|
|----------------------------------------------------------------||----------------------------------------------------------------||---------11---11--11--11--11--11--9---9---9---12--12--12--------||------------0---0---0---0---0---0---0---0---0---0---0---0-------| 2x|----------------------------------------------------------------||----------------------------------------------------------------|
Outro Part 2 Play Guitar 3 Intro The End
|-10------------------------------||--x------------------------------||--7------------------------------||--0------------------------------| |--0------------------------------||--0------------------------------|
Guitar Two Intro
|--------------------------------------||-3-3----x--5--5--x-3-3----x-7-7-7-----||-2-2----x--6--6--x-2-2----x-7-7-7-----||-0-0----x--0--0--x-0-0----x-0-0-0-----| x4|--------------------------------------||--------------------------------------|
Verse
Verse Part 2|---------------NH-----NH--------||----------------7------5--------||----------------7------5--------||-0--------------7------5--------| |-0--------------\------/--------||-0-----------------4x-----------|
PreChorus
|----------------------------------------------------------------||-----------------0-----------------0---2------------------------||--2--------------0----2------------0---2------------------------||--0--------------0----4---0--------0---0------------------------| |--0-------------------0---0-------------------------------------||--0-----------------------0-------------------------------------|
Repeat Intro for Chorus Repeat Intro through Chorus Bridge
|----------------------------------------------------------------||----------------------------------------------------------------||-4-----------------------------------------------------7p9-7p9--||-2--------------9-9-9-9-9-9-7-7-7-7-7-7-0------0----------------| |-2--------------9-9-9-9-9-9-7-7-7-7-7-7-0------0----------------||-2--------------9-9-9-9-9-9-7-7-7-7-7-7-0------0----------------|
|----------------------------------------------------------------||----------------------------------------------------------------||-11-x-x-11-x-x-11-x-x-9-x-x-7-x-x-9-x-x-6-x-x-6-x-x-6-x-x-6-x-x-||----------------------------------------------------------------| |----------------------------------------------------------------||----------------------------------------------------------------|
Chorus 3 Strum
Melted |-2-----------------0------0-----||-3-----------------3------2-----||-2-----------------4------2-----||-0-----------------4------2-----| |-0-----------------2------0-----||-0------------------------------|
Interlude
|--------------------------------||--------------------------------||--------------------------------| 2x|-0000--0000--0000--12-12-12-----| |-0000--0000--0000--12-12-12-----||-0000--0000--0000--12-12-12-----|
|--------------------------------||--------------------------------||--------------------------------| |-5555--5555--5555--5-5-5--------| |-5555--5555--5555--5-5-5--------||-5555--5555--5555--5-5-5--------|
|--------------------------------||--------------------------------||--------------------------------| |-9999--9999--7777--7-7-7--------| |-9999--9999--7777--7-7-7--------||-9999--9999--7777--7-7-7--------|
Outro Part 1 Rest 4 Bars
Buildup|--------------------------------||--------------------------------||--------------------------------||-4------------------------------| |-4------------------------------||-4------------------------------|
Outro Part 2 Repeat 3x
|---------------------------------------------------------------------------||---------------------------------------------------------------------------||--14-14-14-14-14-14-14-14-14-14-14-14-12-12-12-12-12-12-11-11-11-11-11-11--||---x--x--x--x--x--x--x--x--x--x--x--x--x--x--x--x--x--x--x--x--x--x--x--x--| 2x|--12-12-12-12-12-12-12-12-12-12-12-12-10-10-10-10-10-10--9--9--9--9--9--9--||---------------------------------------------------------------------------|
|----------------------------------------------------||----------------------------------------------------||--7-7-7-7-7-7-7-7-7-7-7-7-6-6-6-6-6-6-9-9-9-9-9-9---||--x-x-x-x-x-x-x-x-x-x-x-x-x-x-x-x-x-x-x-x-x-x-x-x---| |--5-5-5-5-5-5-5-5-5-5-5-5-4-4-4-4-4-4-7-7-7-7-7-7---||----------------------------------------------------|
|----------------------------------------------------||----------------------------------------------------||--7-7-7-7-7-7-7-7-7-7-7-7-6-6-6-6-6-6-4-4-4-4-4-4---||--x-x-x-x-x-x-x-x-x-x-x-x-x-x-x-x-x-x-x-x-x-x-x-x---| |--5-5-5-5-5-5-5-5-5-5-5-5-4-4-4-4-4-4-2-2-2-2-2-2---||----------------------------------------------------|
|--------------------------------------------------------------||--------------------------------------------------------------||-11-11-11-11-11-11-11-11-11-11-11-11-9-9-9-9-9-9-9-9-9-9-9-9--||--x--x--x--x--x--x--x--x--x--x--x--x-x-x-x-x-x-x-x-x-x-x-x-x--| |--9--9--9--9--9--9--9--9--9--9--9--9-7-7-7-7-7-7-7-7-7-7-7-7--||--------------------------------------------------------------|
End
|---------------------------------||---------------------------------||--7------------------------------||--x------------------------------| |--5------------------------------||--0------------------------------|
Guitar Three
Intro|--------------------------------------||--------------------------------------||--------------------------------------||-12--------12-------5-------9-----7---| |-12--------12-------5-------9-----7---||-12--------12-------5-------9-----7---|
Verse
|--------------------------------||--------------------------------||--------------------------------||-0------------------------------| |-0------------------------------||-0------------------------------|
Rest for PreChorus Repeat Intro for Chorus Repeat Intro through Chorus Bridge
|----------------------------------------------------------------||----------------------------------------------------------------||----------------------------------------------------------------||-2--------------9-9-9-9-9-9-7-7-7-7-7-7-0---0---5-5-5-5-5-5-----| |-2--------------9-9-9-9-9-9-7-7-7-7-7-7-0---0---5-5-5-5-5-5-----||-2--------------9-9-9-9-9-9-7-7-7-7-7-7-0---0---5-5-5-5-5-5-----|
|----------------------------------------------------------------||----------------------------------------------------------------||----------------------------------------------------------------||--9-9-9-9-9-9-0-0-0-2-2-2-4-4-4-5-5-5-7-7-7-7-7-7-7-7-7-7-7-7---| |--9-9-9-9-9-9-0-0-0-2-2-2-4-4-4-5-5-5-7-7-7-7-7-7-7-7-7-7-7-7---||--9-9-9-9-9-9-0-0-0-2-2-2-4-4-4-5-5-5-7-7-7-7-7-7-7-7-7-7-7-7---|
Chorus 3|---------------------------------||---------------------------------||---------------------------------||--0------------------------------| |--0------------------------------||--0------------------------------|
|--------------------------------------------------||--------------------------------------------------||--------------------------------------------------||-5-5-5-5-5-5-5-5-5-5-5-5-9-9-9-9-9-9-7-7-7-7------| |-5-5-5-5-5-5-5-5-5-5-5-5-9-9-9-9-9-9-7-7-7-7------||-5-5-5-5-5-5-5-5-5-5-5-5-9-9-9-9-9-9-7-7-7-7------|
Interlude
|--------------------------------||--------------------------------||--------------------------------| 2x|-0000--0000--0000--12-12-12-----| |-0000--0000--0000--12-12-12-----||-0000--0000--0000--12-12-12-----|
|--------------------------------||--------------------------------||--------------------------------| |-5555--5555--5555--5-5-5--------| |-5555--5555--5555--5-5-5--------||-5555--5555--5555--5-5-5--------|
|--------------------------------||--------------------------------||--------------------------------| |-9999--9999--7777--7-7-7--------| |-9999--9999--7777--7-7-7--------||-9999--9999--7777--7-7-7--------|
Repeat Chorus Normally Outro Part 1 Rest Four Bars
Buildup|--------------------------------||--------------------------------||--------------------------------||-4------------------------------| |-4------------------------------||-4------------------------------|
Repeat Interlude
End|---------------------------------||---------------------------------||---------------------------------||--0------------------------------| |--0------------------------------||--0------------------------------|
Tap to rate this tab
 
# A B C D E F G H I J K L M N O P Q R S T U V W X Y Z