Axiom tab with lyrics by The Contortionist for guitar @ Guitaretab

The Contortionist – Axiom tab

Title: Axiom
Artist: The Contortionist
Album: Exoplanet
Tempo: 115
Tuning: Down 1/2 step (Eb Ab Db Gb Bb Eb)
Tabbed by: Erin Milard
Corrections to: ezzatron at gmail


First tab. Made it because this is a great song by an awesome band, and all the existing 
tabs are rubbish.
This song appears to be in a different tuning to the rest of the album, which is in drop 
Gb or something.
Most of this spot on, except some of the barre chords which may be slightly different.

Enjoy!


Legend
h - hammer on
p - pull off
/ - slide up
* - natural harmonic


Guitar 1:Eb|-------|-----7----------|-------|--------7/8-----------------|Bb|--8----|--7--------7----|--8----|--7-----------------7-------|Gb|-------|----------------|-------|----------------------------|Db|-------|----------------|-------|----------------------------|Ab|--7----|----------------|--5----|----------------------------|Eb|-------|----------------|-------|----------------------------|
--0-------------------------|----------------------------|--------5-----------5-------|--------5-----------5-------|-----------4-----------4----|-----------4-----------4----|-----------------5----------|-----------------5----------|--3-------------------------|--3-------------------------|----------------------------|----------------------------|
----------------------------|----------------------------|--------5-----------5-------|--------5-----------5-------|-----------4-----------4----|-----------4-----------4----|-----------------5----------|-----------------5----------|--3-------------------------|--3-------------------------|----------------------------|----------------------------|
----------------------|----------------------|----------------------------|--3--------5----------|--1--------3----------|--0-----------------1p0-----|--------0--------0----|--------0--------0----|----------------------------|----------------------|----------------------|----------------------------|--2--------3----------|--0--------2----------|----------------------------|----------------------|----------------------|--1-------------------------|
-------|----------------------------|--------------0-------------|-------|--0-----------------1p0-----|--------0-------------------|--2----|----------------------------|--0h2------2-----------0----|-------|----------------------------|----------------------------|-------|----------------------------|----------------------------|--1----|--1-------------------------|----------------------------|
--------------------------2-------------------------|--0h3---------1p0-----------------------------------|--------0-------------------------------------------|----------------------------------------------------|----------------------------------------------------|----------------------------------------------------|
----------------------------|-------|----------------------------|--0-----------------1p0-----|-------|--0-----------------1p0-----|----------------------------|--2----|----------------------------|----------------------------|-------|----------------------------|----------------------------|-------|----------------------------|--1-------------------------|--1----|--1-------------------------|
--------------0-------------|-----0--4p0------2p0--------|-------|--------0--/2----4--2p0-----|--/2---------/4--------4----|-------|----------------------------|----------------------------|-------|-----2----------------------|----------------------------|-------|--0-------------------------|----------------------------|-------|----------------------------|----------------------------|-------|
--/7------------------------|--0-------------------------|-----9--7-------------------|----------------------------|-----------9--------8-------|-----8--------------8-------|-----------------6-----6----|--------6--------6-----6----|--------------4-------------|-----------4--4-------------|----------------------------|----------------------------|
--0-------------------------|--------------0-------------|--------------------0p2-----|--------3--------3----------|-----8----------------------|-----0-----0--------0-------|--------6--------2----------|----------------------------|-----------4--0-------------|--3--------------------3----|----------------------------|----------------------------|
--------------0-------------|--------------0-------------|--------3--------3----------|----------------------------|-----0-----0--------0-------|--------8--------8----------|----------------------------|-----6-----6--------6-------|--3--------------------3----|--4--------------------4----|----------------------------|----------------------------|
--------------0-------------|----------------------------|----------------------------|--------0p2---------3-------|--------8--------8----------|-----------------0-----0----|-----6-----6--------6-------|-----2----------------------|--4--------------------4----|--0-----------3-------------|----------------------------|----------------------------|
--0-------------------------|--0-------------------------|-----3--------------3-------|-----3----------------------|--------0--------0-----0----|--------0-----------8-------|----------------------------|-----------------6-----6----|-----------3--3-------------|-----------3--4-------------|----------------------------|----------------------------|
--0-------------------------|--0-------------------------|----------------------------|--------------------0p2-----|-----8--------------8-------|-----8----------------------|--------6--------6-----6----|--------6--------2----------|-----------4--4-------------|-----------4--0-------------|----------------------------|----------------------------|
--------------0-------------|--------------0-------------|--------3--------3----------|--------3--------3----------|-----0-----0--------0-------|-----0-----0--------0-------|----------------------------|----------------------------|--3--------------------3----|--3--------------------3----|----------------------------|----------------------------|
--------------0-------------|--------------0-------------|----------------------------|----------------------------|--------8--------8----------|--------8--------8----------|-----6-----6--------6-------|-----6-----6--------6-------|--4--------------------4----|--4--------------------4----|----------------------------|----------------------------|
----------------------------|--0-------------------------|--------0p2---------3-------|-----3--------------3-------|-----------------0-----0----|--------0--------0-----0----|-----2----------------------|----------------------------|--0-----------3-------------|-----------3--3-------------|----------------------------|----------------------------|
--0-------------------------|--0-------------------------|--0-------------|-----3--------------3-------|-----3--------------3-------|-----3----------|--------0--------0-----0----|--------0--------0-----0----|--------0-------|----------------------------|----------------------------|----------------|-----------3--3-------------|-----------3--3-------------|-----------3----|----------------------------|----------------------------|----------------|
--7---|------|--3---|------|--7---|------|--3---|------|--7----|--2----|--8---|------|--0---|------|--8---|------|--0---|------|--8----|--3----|--9---|------|--0---|------|--9---|------|--0---|------|--9----|--2----|--9---|------|--2---|------|--9---|------|--2---|------|--9----|--0----|--7---|------|--3---|------|--7---|------|--3---|------|--7----|-------|------|------|------|------|------|------|------|------|-------|-------|
----------------|--0-------------|--0----|--7*---|-----------3----|-----3----------|--8----|--7*---|--------0-------|--------0-------|--0----|--7*---|-----4----------|-----------4----|--9----|-------|--3-------------|----------------|--8----|-------|----------------|----------------|-------|-------|
Second guitar comes in here.
Guitar 1:--/15--------------|--14---------------|-------------------|--19---------------|--17-------------|--/17--------------|--15---------------|--15---------------|--20---------------|--19-------------|-------------------|-------------------|--16---------------|-------------------|-----------------|-------------------|-------------------|-------------------|-------------------|-----------------|-------------------|-------------------|-------------------|-------------------|-----------------|-------------------|-------------------|-------------------|-------------------|-----------------|
Guitar 2:-------------------|-------------------|-------------------|-------------------|-----------------|-------------------|-------------------|-------------------|-------------------|-----------------|---0---------------|--4----------------|--0----------------|--4----------------|-----------------|-------------------|--2----------------|-------------------|--2----------------|--4--------------|---3---------------|-------------------|--3----------------|-------------------|--2--------------|-------------------|-------------------|-------------------|-------------------|-----------------|
---15--------------|--14---------------|-------------------|--19---------------|--17-------------|---17--------------|--15---------------|--15---------------|--20---------------|--19-------------|-------------------|-------------------|--16---------------|-------------------|-----------------|-------------------|-------------------|-------------------|-------------------|-----------------|-------------------|-------------------|-------------------|-------------------|-----------------|-------------------|-------------------|-------------------|-------------------|-----------------|
-------------------|-------------------|-------------------|-------------------|-----------------|-------------------|-------------------|-------------------|-------------------|-----------------|---0---------------|--4----------------|--2----------------|--0----------------|--4--------------|-------------------|--2----------------|--0----------------|-------------------|--2--------------|---3---------------|-------------------|-------------------|--3----------------|-----------------|-------------------|-------------------|-------------------|-------------------|-----------------|
---15--------------|--14---------------|-------------------|--19---------------|--17-------------|---17--------------|--15---------------|--15---------------|--20---------------|--19-------------|-------------------|-------------------|--16---------------|-------------------|-----------------|-------------------|-------------------|-------------------|-------------------|-----------------|-------------------|-------------------|-------------------|-------------------|-----------------|-------------------|-------------------|-------------------|-------------------|-----------------|
-------------------|-------------------|-------------------|-------------------|-----------------|-------------------|-------------------|-------------------|-------------------|-----------------|---0---------------|--4----------------|-------------------|--0----------------|--4--------------|-------------------|--2----------------|--4----------------|-------------------|--2--------------|---3---------------|-------------------|--2----------------|--3----------------|-----------------|-------------------|-------------------|-------------------|-------------------|-----------------|
---15--------------|--14---------------|-------------------|--19---------------|--17-------------|---17--------------|--15---------------|--15---------------|--20---------------|--19-------------|-------------------|-------------------|--16---------------|-------------------|-----------------|-------------------|-------------------|-------------------|-------------------|-----------------|-------------------|-------------------|-------------------|-------------------|-----------------|-------------------|-------------------|-------------------|-------------------|-----------------|
-------------------|-------------------|-------------------|-------------------|-----------------|-------------------|-------------------|-------------------|-------------------|-----------------|---2---------------|--0----------------|--4----------------|--0----------------|--4--------------|---0---------------|-------------------|--2----------------|-------------------|--2--------------|-------------------|--3----------------|-------------------|--3----------------|-----------------|-------------------|-------------------|-------------------|-------------------|-----------------|
---15--------------|--14---------------|-------------------|--19---------------|--17-------------|---17--------------|--15---------------|--15---------------|--20---------------|--19-------------|-------------------|-------------------|--16---------------|-------------------|-----------------|-------------------|-------------------|-------------------|-------------------|-----------------|-------------------|-------------------|-------------------|-------------------|-----------------|-------------------|-------------------|-------------------|-------------------|-----------------|
-------------------|-------------------|-------------------|-------------------|-----------------|-------------------|-------------------|-------------------|-------------------|-----------------|-------------------|--0----------------|--4----------------|--2----------------|--0--------------|---4---------------|-------------------|--2----------------|--0----------------|-----------------|---2---------------|--3----------------|-------------------|-------------------|--3--------------|-------------------|-------------------|-------------------|-------------------|-----------------|
---15--------------|--14---------------|-------------------|--19---------------|--17-------------|---17--------------|--15---------------|--15---------------|--20---------------|--19-------------|-------------------|-------------------|--16---------------|-------------------|-----------------|-------------------|-------------------|-------------------|-------------------|-----------------|-------------------|-------------------|-------------------|-------------------|-----------------|-------------------|-------------------|-------------------|-------------------|-----------------|
-------------------|-------------------|-------------------|-------------------|-----------------|-------------------|-------------------|-------------------|-------------------|-----------------|---4---------------|--0----------------|--4----------------|-------------------|--0--------------|---2---------------|-------------------|--2----------------|--4----------------|-----------------|-------------------|--3----------------|-------------------|--2----------------|--3--------------|-------------------|-------------------|-------------------|-------------------|-----------------|
---15--------------|--14---------------|-------------------||---17--------------|--15---------------|--15---------------||-------------------|-------------------|--16---------------||-------------------|-------------------|-------------------||-------------------|-------------------|-------------------||-------------------|-------------------|-------------------||
-------------------|-------------------|-------------------||-------------------|-------------------|-------------------||---4---------------|--2----------------|--0----------------||---2---------------|--0----------------|-------------------||-------------------|-------------------|--3----------------||-------------------|-------------------|-------------------||
Please rate this tab:
x1.0