The Fall Of Troy - I Just Got This Symphony Goin tab

  A note
Exported from power tab as it's easier for people who cant download it, credit to
the person who uploaded the PT file.
4 guitars and quite hard to follow at times but really accuate.
Great song, great band
Intro
    Q=144
   4/4
    Gtr I
     T   T         T    T   T         T
||--12p0----------12p0-12p0----------12p0-|||o------3h12p0h3-----------3h12p0h3------|||----------------------------------------|||----------------------------------------|||o---------------------------------------|||----------------------------------------|
|
| Gtr II| T T T T T T||--12p0----------12p0-12p0----------12p0-|||o------3h12p0h3-----------3h12p0h3------|||----------------------------------------|||----------------------------------------|||o---------------------------------------|||----------------------------------------|
T T T T T T|-12p0----------12p0-12p0----------12p0--||------3h12p0h3-----------3h12p0h3-------||----------------------------------------||----------------------------------------||----------------------------------------||----------------------------------------|
|
| T T T T T T|-12p0----------12p0-12p0----------12p0--||------3h12p0h3-----------3h12p0h3-------||----------------------------------------||----------------------------------------||----------------------------------------||----------------------------------------|
T T T T T T|-14p0--------14p0---14p0--------14p0---||------15p0h7------7------15p0h7------7-||---------------------------------------||---------------------------------------||---------------------------------------||---------------------------------------|
|
| T T T T T T|-14p0--------14p0---14p0--------14p0---||------15p0h7------7------15p0h7------7-||---------------------------------------||---------------------------------------||---------------------------------------||---------------------------------------|
T T T T T T T T|-17p0--------17p0---17p0--------17p0----|||------17p0h8------8------17p0h8------8-o|||----------------------------------------|||----------------------------------------|||---------------------------------------o|||----------------------------------------||
|
| T T T T T T T T|-17p0--------17p0---17p0--------17p0----|||------17p0h8------8------17p0h8------8-o|||----------------------------------------|||----------------------------------------|||---------------------------------------o|||----------------------------------------||
T T T T T T|-12p0----------12p0-12p=0-----------12-0-||------3h12p0h3------------3h12p=0h3------||-----------------------------------------||-----------------------------------------||-----------------------------------------||-----------------------------------------|
|
| T T T T T T|-12p0h5--------12p0h=5---------12p0-12p0-||--------12p0h5---------12p0h=5-----------||-----------------------------------------||-----------------------------------------||-----------------------------------------||-----------------------------------------|
T T T T T T|-12p0----------12p0-12p=0-----------12p0-||------3h12p0h3------------3h12p=0h3------||-----------------------------------------||-----------------------------------------||-----------------------------------------||-----------------------------------------|
|
| T T T T T T|-12p0h5--------12p0h=5---------12p0-12p0-||--------12p0h5---------12p0h=5-----------||-----------------------------------------||-----------------------------------------||-----------------------------------------||-----------------------------------------|
T T T T T T|-14p0---------14p=0---14p=0---------14p0----||------15p=0h7-------7-------15p0h=7-------7-||--------------------------------------------||--------------------------------------------||--------------------------------------------||--------------------------------------------|
|
| T T T T T T|-10p0h=7---------10p0h=7---------10p=0h7----||---------10p0h=7---------10p=0h7---------10p||--------------------------------------------||--------------------------------------------||--------------------------------------------||--------------------------------------------|
T T T T T T T T|-17p0--------17p0---17p0---------17p=0---||------17p0h8------8------17p=0h8-------8-||-----------------------------------------||-----------------------------------------||-----------------------------------------||-----------------------------------------|
|
| T T T T T|------10p0h7--------10p0h=7---------10p0-||--0h7--------10p0h7---------10p0h=7------||-----------------------------------------||-----------------------------------------||-----------------------------------------||-----------------------------------------|
T T T T T T|-12p0----------12p0-12p0----------12p0-||------3h12p0h3-----------3h12p0h3------||---------------------------------------||---------------------------------------||---------------------------------------||---------------------------------------|
|
| T T T T T T|-12p0----------12p0-12p0----------12p0-||------3h12p0h3-----------3h12p0h3------||---------------------------------------||---------------------------------------||---------------------------------------||---------------------------------------|
T T T T T T|-12p0----------12p0-12p0----------12p0-||------3h12p0h3-----------3h12p0h3------||---------------------------------------||---------------------------------------||---------------------------------------||---------------------------------------|
|
| T T T T T T|-12p0----------12p0-12p0----------12p0-||------3h12p0h3-----------3h12p0h3------||---------------------------------------||---------------------------------------||---------------------------------------||---------------------------------------|
Q=1H=H T T T T T T T T T T|-14p0--------14p0---14p0--------14p0---|-17p0--------17p0-----------7p5p0---||------15p0h7------7------15p0h7------7-|------17p0h8------8h17p0h8--------5-||---------------------------------------|----------------------------------5-||---------------------------------------|----------------------------------7-||---------------------------------------|------------------------------------||---------------------------------------|------------------------------------|
|
| T T T T T T T T T T|-14p0--------14p0---14p0--------14p0---|-17p0--------17p0-----------7p5p0---||------15p0h7------7------15p0h7------7-|------17p0h8------8h17p0h8----------||---------------------------------------|----------------------------------5-||---------------------------------------|----------------------------------7-||---------------------------------------|------------------------------------||---------------------------------------|----------------------------------5-|
Verse Q=114 PM--| PM------|||----------0-0-0-------0---0---0---|||o-(5)-5-5-------5-5-5-----------5-|||--(5)-5-5-------5-5-5-----------5-|||--(7)-7-7-------7-7-7-----------7-|||o---------------------------------|||----------------------------------|
|
||----------5h7---------5h7p==5p0---|||o---------------------------------|||--(5)-5-5-------5-5-5-----------5-|||--(7)-7-7-------7-7-7-----------7-|||o---------------------------------|||--(5)-5-5-------5-5-5-----------5-|
|----------------------------------------------||-(5)-5-5--------------------------------------||-(5)-5-5--7S===9------4S5---5S===7-----4S5----||-(7)-7-7--x----x------x-x---x----x-----x-x-3--||----------5S===7------2S3---3S===5-----2S3-3--||-------------------------------------------1--|
|
|---------10h12p==10p0-------8h10p==8-0-7h8----||----------------------5h6p0-------------------||-(5)-5-5--------------------------------------||-(7)-7-7--------------------------------------||----------------------------------------------||-(5)-5-5--------------------------------------|
|---------------------------------------------||---------------------------------------------||-------------------------------------------7-||-(3)-3-3-3---(3)-3-(3)-----3-----(3)-----3-7-||-(3)-3-3-3---(3)-3-(3)-----3-----(3)-----3-5-||-(1)-1-1-1---(1)-1-(1)-----1-----(1)-----1---|
|
|---------------------------------------------||-----0---6-0---------------0-(0)-----0h5p0-5s||-------5---------0-----(0)-4-(4)-------------||--6--------------6-----(6)-------------------||---------------------------------------------||---------------------------------------------|
1. 2.|-------------------------------------------------||----------------------------------------------||----------------------------------------------5-o||----------------------------------------------||-(7)-7--7-------7--7--7--9----9--9--9-----9-9-5--||-7-7--7-------7--7--7--9----9--9--9-----9-9-5-||-(7)-7--7-------7--7--7--9----9--9--9-----9-9-7--||-7-7--7-------7--7--7--9----9--9--9-----9-9-7-||-(5)-5--5-------5--5--5--7----7--7--7-----7-7---o||-5-5--5-------5--5--5--7----7--7--7-----7-7---||-------------------------------------------------||--------------------------------------------5-|
|
|------------7h==8-----8p=7-7-10S12-12h15p12------||----------7h==8-----8p=7-7-10S12-12h15p12-----||--6----(6)-(6)-(6)---(6)-8-8-------12-----------o||-6---(6)-(6)-(6)---(6)-8-8-------12-----------||----------------------------------------------5--||--------------------------------------------5-||----------------------------------------------7--||--------------------------------------------7-||------------------------------------------------o||--------------------------------------------7-||----------------------------------------------5--||--------------------------------------------5-|
is for Chorus $ 7/8|-------------------------------|----------------------------||-------------------------------|----------------------------||-(5)-5-5--5-5-5-5-5-5--5-5-5-5-|-(5)-5-5--5-5-5--10-10-10-5-||-(7)-7-7--7-7-7-7-7-7--7-7-7-7-|-(7)-7-7--7-7-7---9--9--9-7-||----------------6-6-6--6-6-6-5-|-(5)-5-5--5-5-5---8--8--8---||-(5)-5-5--5-5-5----------------|--------------------------5-|
|
|-------------------------------|----------------------------||-------------------------------|----------------------------||-(5)-5-5--5-5-5-5-5-5--5-5-5-5-|-(5)-5-5--5-5-5--10-10-10-5-||-(7)-7-7--7-7-7-7-7-7--7-7-7-7-|-(7)-7-7--7-7-7---9--9--9-7-||-(7)-7-7--7-7-7-6-6-6--6-6-6-5-|-(5)-5-5--5-5-5---8--8--8-7-||-(5)-5-5--5-5-5----------------|--------------------------5-|
4/4|-------------------------------|--------------------------------------------||-------------------------------|--------------------------------------------||-(5)-5-5--5-5-5-5-5-5--5-5-5-5-|-(5)-5-5--5-5-5-10--10--------------------5-||-(7)-7-7--7-7-7-7-7-7--7-7-7-7-|-(7)-7-7--7-7-7--9---9--------------------7-||----------------6-6-6--6-6-6-5-|-(5)-5-5--5-5-5--8---8----------------------||-(5)-5-5--5-5-5----------------|------------------------------------------5-|
|
|-------------------------------|-------------------------8--(8)-------(8)---||-------------------------------|------------------------12-(12)b12.5r(12)---||-(5)-5-5--5-5-5-5-5-5--5-5-5-5-|-(5)-5-5--5-5-5-10--10--------------------5-||-(7)-7-7--7-7-7-7-7-7--7-7-7-7-|-(7)-7-7--7-7-7--9---9--------------------7-||-(7)-7-7--7-7-7-6-6-6--6-6-6-5-|-(5)-5-5--5-5-5--8---8--------------------7-||-(5)-5-5--5-5-5----------------|------------------------------------------5-|
To Coda 7/8|-------------------------------|----------------------------||-------------------------------|----------------------------||-(5)-5-5--5-5-5-5-5-5--5-5-5-5-|-(5)-5-5--5-5-5--10-10-10-5-||-(7)-7-7--7-7-7-7-7-7--7-7-7-7-|-(7)-7-7--7-7-7---9--9--9-7-||----------------6-6-6--6-6-6-5-|-(5)-5-5--5-5-5---8--8--8---||-(5)-5-5--5-5-5----------------|--------------------------5-|
|
|-------------------------------|----------------------------||-------------------------------|----------------------------||-(5)-5-5--5-5-5-5-5-5--5-5-5-5-|-(5)-5-5--5-5-5--10-10-10-5-||-(7)-7-7--7-7-7-7-7-7--7-7-7-7-|-(7)-7-7--7-7-7---9--9--9-7-||-(7)-7-7--7-7-7-6-6-6--6-6-6-5-|-(5)-5-5--5-5-5---8--8--8-7-||-(5)-5-5--5-5-5----------------|--------------------------5-|
4/4|-------------------------------|--------------------------------------------||-------------------------------|------------------------------------------5-||-(5)-5-5--5-5-5-5-5-5--5-5-5-5-|-(5)-5-5--5-5-5-10--10--------------------5-||-(7)-7-7--7-7-7-7-7-7--7-7-7-7-|-(7)-7-7--7-7-7--9---9--------------------7-||----------------6-6-6--6-6-6-5-|-(5)-5-5--5-5-5--8---8----------------------||-(5)-5-5--5-5-5----------------|--------------------------------------------|
|
|-------------------------------|-------------------------8--(8)-------(8)---||-------------------------------|------------------------12-(12)b12.5r(12)---||-(5)-5-5--5-5-5-5-5-5--5-5-5-5-|-(5)-5-5--5-5-5-10--10--------------------5-||-(7)-7-7--7-7-7-7-7-7--7-7-7-7-|-(7)-7-7--7-7-7--9---9--------------------7-||-(7)-7-7--7-7-7-6-6-6--6-6-6-5-|-(5)-5-5--5-5-5--8---8----------------------||-(5)-5-5--5-5-5----------------|------------------------------------------5-|
Verse 2 PM--| PM------|||----------0-0-0-------0---0---0---|||o-(5)-5-5-------5-5-5-----------5-|||--(5)-5-5-------5-5-5-----------5-|||--(7)-7-7-------7-7-7-----------7-|||o---------------------------------|||----------------------------------|
|
||----------5h7---------5h7p==5p0---|||o---------------------------------|||--(5)-5-5-------5-5-5-----------5-|||--(7)-7-7-------7-7-7-----------7-|||o---------------------------------|||--(5)-5-5-------5-5-5-----------5-|
|----------------------------------------------||-(5)-5-5--------------------------------------||-(5)-5-5--7S===9------4S5---5S===7-----4S5----||-(7)-7-7--x----x------x-x---x----x-----x-x-3--||----------5S===7------2S3---3S===5-----2S3-3--||-------------------------------------------1--|
|
|---------10h12p==10p0-------8h10p==8-0-7h8----||----------------------5h6p0-------------------||-(5)-5-5--------------------------------------||-(7)-7-7--------------------------------------||----------------------------------------------||-(5)-5-5--------------------------------------|
1.|---------------------------------------------|-------------------------------------------------|||---------------------------------------------|----------------------------------------------5-o|||-------------------------------------------7-|-(7)-7-7-----7--7-7--9-----9--9----9--9-----9-5--|||-(3)-3-3-3---(3)-3-(3)-----3-----(3)-----3-7-|-(7)-7-7-----7--7-7--9-----9--9----9--9-----9-7--|||-(3)-3-3-3---(3)-3-(3)-----3-----(3)-----3-5-|-(5)-5-5-----5--5-5--7-----7--7----7--7-----7---o|||-(1)-1-1-1---(1)-1-(1)-----1-----(1)-----1---|-------------------------------------------------||
|
|---------------------------------------------|-----------------------------10S12p0-12h15p12----|||-----0---6-0---------------0-(0)-----0h5p0---|-------5s12-12S13---13S12-----------------------o|||-------5---------0-----(0)-4-(4)-------------|--------------------------12------------------5--|||--6--------------6-----(6)-------------------|----------------------------------------------7--|||---------------------------------------------|------------------------------------------------o|||---------------------------------------------|----------------------------------------------5--||
2. D.S. al Coda|-------------------------------------------------||-------------------------------------------------||-7-7--7-------7--7--7--9----9--9--9-----9-9-5----||-7-7--7-------7--7--7--9----9--9--9-----9-9-7----||-5-5--5-------5--5--5--7----7--7--7-----7-7------||--------------------------------------------5----|
|
|----------7h==8-----8p=7-7-10S12-12h15p12--------||-6---(6)-(6)-(6)---(6)-8-8-------12--------------||--------------------------------------------5----||--------------------------------------------7----||--------------------------------------------7----||--------------------------------------------5----|
& Gtr III|-------------------------------|-----------------------------||-------------------------------|-----------------------------||-(5)-5-5--5-5-5-5-5-5--5-5-5-5-|-(5)-5-5--5-5-5-10--10----14-||-(7)-7-7--7-7-7-7-7-7--7-7-7-7-|-(7)-7-7--7-7-7--9---9-------||----------------6-6-6--6-6-6-5-|-(5)-5-5--5-5-5--8---8-------||-(5)-5-5--5-5-5----------------|-----------------------------|
|
| Gtr IV|-------------------------------|-----------------------------||-------------------------------|---------------------------5-||-(5)-5-5--5-5-5-5-5-5--5-5-5-5-|-(5)-5-5--5-5-5-10--10-----2-||-(7)-7-7--7-7-7-7-7-7--7-7-7-7-|-(7)-7-7--7-7-7--9---9-------||-(7)-7-7--7-7-7-6-6-6--6-6-6-5-|-(5)-5-5--5-5-5--8---8-------||-(5)-5-5--5-5-5----------------|-----------------------------|
Bridge|--------------13s15p0--------------------------||----------------------13-13-13---13h15p13-0----||-(14)----14p0-------------------------------12-||------14---------------------------------------||-----------------------------------------------||-----------------------------------------------|
|
|-----------------------------------------------||--(5)--5--x-x--x--x-5s=8--x--x-x--x-----x-x--5-||--(2)--2--x-x--x--x-2s=5--x--x-x--x-----x-x----||-----------------------------------------------||-----------------------------------------------||-----------------------------------------------|
|--------------------------------------------------||--------------------------------------------------||-(12)-12-12---12h14p12-0-10-10-10h==12p10-0-0-14--||--------------------------------------------------||--------------------------------------------------||--------------------------------------------------|
|
|--------------------------------------------------||--(5)--5--5-5--5-----x-x--3--6----6--6----6-6--5--||--------------------------------------------------||--------------------------------------------------||--------------------------------------------------||--------------------------------------------------|
|--------------13s15p0--------------------------||----------------------13-13-13---13h15p13-0----||-(14)----14p0-------------------------------12-||------14---------------------------------------||-----------------------------------------------||-----------------------------------------------|
|
|-----------------------------------------------||--(5)--5--x-x--x--x-5s=8--x--x-x--x-----x-x--5-||-------2--x-x--x--x-2s=5--x--x-x--x-----x-x----||-----------------------------------------------||-----------------------------------------------||-----------------------------------------------|
|---------------------------------------------------||---------------------------------------------------||-(12)-12-12---12h14p12-0-10---10-10h==12p10-0-0-14-||---------------------------------------------------||---------------------------------------------------||---------------------------------------------------|
|
|--------------------------------------------8p0----||--(5)--5--5-5--5-----x-x--x-6--6p=0--------------5-||------------------------------------9--------------||---------------------------------------------------||---------------------------------------------------||---------------------------------------------------|
|--------------13s15p0--------------------------||----------------------13-13-13---13h15p13-0----||-(14)----14p0-------------------------------12-||------14---------------------------------------||-----------------------------------------------||-----------------------------------------------|
|
|---------------5--x-x--------------------------||--(5)--5--x-x----------8--8--8-8--x-----6-x--5-||---------------5--x-x--5--5--5-5--x-----0-x----||-----------------------------------------------||-----------------------------------------------||-----------------------------------------------|
|--------------------------------------------------||--------------------------------------------------||-(12)-12-12---12h14p12-0-10-10-10h==12p10-0-0-14--||--------------------------------------------------||--------------------------------------------------||--------------------------------------------------|
|
|--------------------------------------------------||--(5)--5--5-5--x-----x-x--6--6--6-6--5----x-x--5--||-----------------------------------------------4--||--------------------------------------------------||--------------------------------------------------||--------------------------------------------------|
|--------------13s15p0--------------------------||----------------------13-13-13---13h15p13-0----||-(14)----14p0-------------------------------12-||------14---------------------------------------||-----------------------------------------------||-----------------------------------------------|
|
|---------------5-------------------------------||--(5)--5--x-x-----x-x--8--8--8-8--x-----x-x--5-||--(4)--4--x-x-----x-x--5--5--5-5--x-----x-x----||-----------------------------------------------||-----------------------------------------------||-----------------------------------------------|
|
| Gtr I|-----------------------------------------------||-----------------------------------------------||-----------------------------------------------||-----------------------------------------------||-----------------------------------------------||-----------------------------------------------|
|-----------------------------------------------------||-----------------------------------------------------||-(12)-12-12---12h14p12-0-10---10-10h==12p10-0--0--14-||-----------------------------------------------------||-----------------------------------------------------||-----------------------------------------------------|
|
| Gtr II|-----------------------------------------------------||--(5)--5--5-5--x-----x-x--6-6--6--6-6--6----5--0-----||-----------------------------------------------------||-----------------------------------------------------||--------------------------------------------------12-||-----------------------------------------------------|
|
|-----------------------------------------------------||---------------------------------------0------(0)----||---------------------------------------0------(0)-12-||--------------------------------------------------10-||--------------------------------------------------12-||-----------------------------------------------------|
Gtr II|------------------------------------------||-------------12b13r==(12)--------8s10p0---||---------12-------------------9-----------||------10--------------------7-------------||-(12)---------------------8-------------5-||------------------------------------------|
|
| Gtr I|------------------------------------------||------------------------------------------||-(12)-12-12---x----x---x--9-9-9--x--x-x-5-||-(10)-10-10---x----x---x--7-7-7--x--x-x-3-||-(12)-12-12---x----x---x--8-8-8--x--x-x-5-||------------------------------------------|
|--------------------------------------||----------5b6r==(5)-------------------||-------5--------------------4h5p0-----||-----3------------------5p0-----------||-(5)------------------3-----------12--||--------------------5-----------------|
|
|--------------------------------------||--------------------------------------||-(5)-5-5--x---x--x----------4h5p0-12--||-(3)-3-3--x---x--x------5p0-------10--||-(5)-5-5--x---x--x----3-----------12--||--------------------5-----------------|
|------------------------------------------||-------------12b13r==(12)--------8s10p0---||---------12-------------------9-----------||------10--------------------7-------------||-(12)---------------------8-------------5-||------------------------------------------|
|
|------------------------------------------||------------------------------------------||-(12)-12-12---x----x---x--9-9-9--x--x-x-5-||-(10)-10-10---x----x---x--7-7-7--x--x-x-3-||-(12)-12-12---x----x---x--8-8-8--x--x-x-5-||------------------------------------------|
|--------------------------------------||----------5b6r==(5)-------------------||-------5--------------------4h5p0-----||-----3------------------5p0-----------||-(5)------------------3-----------12--||--------------------5-----------------|
|
|--------------------------------------||--------------------------------------||-(5)-5-5--x---x--x----------4h5p0-----||-(3)-3-3--x---x--x------5p0-----------||-(5)-5-5--x---x--x----3-----------12--||--------------------5-----------------|
|----------------------------------------|-----------------------------------||-------------12b13r(12)--------8s10p0---|----------5b6r(5)------------------||---------12-----------------9-----------|-------5------------------4h5p0----||------10------------------7-------------|-----3----------------5p0----------||-(12)-------------------8-------------5-|-(5)----------------3-----------12-||----------------------------------------|------------------5----------------|
|
|----------------------------------------|-----------------------------------||-------------12b13r(12)--------8s10p0---|----------5b6r(5)------------------||---------12-----------------9-----------|-------5------------------4h5p0----||------10------------------7-------------|-----3----------------5p0----------||-(12)-------------------8-------------5-|-(5)----------------3-----------12-||----------------------------------------|------------------5----------------|
Gtr III|----------------------------------------|--------------------------------||-------------12b13r(12)--------8s10p0---|----------5b6r(5)---------------||---------12-----------------9-----------|-------5---------------------14-||------10------------------7-------------|-----3------------2--2----2-----||-(12)-------------------8-------------5-|-(5)--------------0-(0)--(0)----||----------------------------------------|--------------------------------|
|
| Gtr IV|----------------------------------------|--------------------------------||-------------12b13r(12)--------8s10p0---|----------5b6r(5)-5-(5)--(5)--5-||---------12-----------------9-----------|-------5----------2-(2)--(2)----||------10------------------7-------------|-----3------------2-(2)--(2)----||-(12)-------------------8-------------5-|-(5)--------------0-(0)--(0)----||----------------------------------------|--------------------------------|
|--------------13s15p0---------------------------||----------------------13-13--13---13h15p13-0----||-(14)----14p0--------------------------------12-||------14----------------------------------------||------------------------------------------------||------------------------------------------------|
|
|---------------5--x-x--------------------5-5----||--(5)--x--x-x----------8-(8)--x-x--x----------5-||---------------5--x-x--5-(5)--x-x--x-----5------||------------------------------------------------||------------------------------------------------||------------------------------------------------|
|---------------------------------------------------||---------------------------------------------------||-(12)-12-12---12h14p12-0-10---10-10h==12p10-0-0-14-||---------------------------------------------------||---------------------------------------------------||---------------------------------------------------|
|
|---------------------------------------------------||--(5)--5--5-5--5-----x-x--6-6--6--6-6--x----5-x--5-||-------------------------------------------------2-||---------------------------------------------------||---------------------------------------------------||---------------------------------------------------|
|--------------13s15p0-------------------------------||----------------------13-----13--13---13h15p13-0----||-(14)----14p0------------------------------------12-||------14--------------------------------------------||----------------------------------------------------||----------------------------------------------------|
|
|---------------5--x-x-------------------------------||--(5)--5--x-x----------8-(8)-(8)--8-8--------x-x--5-||--(2)--2--x-x--5--x-x--5-(5)-(5)--5-5--------x-x----||----------------------------------------------------||----------------------------------------------------||----------------------------------------------------|
|----------------------------------------------------||----------------------------------------------------||-(12)-12-12---12h14p12-0-10---10-10h==12p10-0-0-14--||----------------------------------------------------||----------------------------------------------------||----------------------------------------------------|
|
|----------------------------------------------------||--(5)--5--5-5--5-----x-x--6-6--6------------8----5--||----------------------------------7-9------------4--||----------------------------------------------------||----------------------------------------------------||----------------------------------------------------|
|--------------13s15p0-----------------------------||----------------------13-----13--13-13h15p13-0----||-(14)----14p0----------------------------------12-||------14------------------------------------------||--------------------------------------------------||--------------------------------------------------|
|
|---------------5--x-x----------------------5-x----||----------x-x----------8-(8)-(8)--8--x----------5-||----------x-x--5--x-x--5-(5)-(5)--5--x------------||--------------------------------------------------||--------------------------------------------------||--------------------------------------------------|
|-----------------------------------------------||-----------------------------------------------||-(12)-12-12-12h14p12-0-10-10-10h==12p10-0-0-14-||-----------------------------------------------||-----------------------------------------------||-----------------------------------------------|
|
|-----------------------------------------------||--(5)--5--5--------3-x--6--6--6-6--5----x-x--5-||---------------------------------------------4-||-----------------------------------------------||-----------------------------------------------||-----------------------------------------------|
|--------------13s15p0--------------------------||----------------------13-13-13---13h15p13-0----||-(14)----14p0-------------------------------12-||------14---------------------------------------||-----------------------------------------------||-----------------------------------------------|
|
|---------------5--x-x--------------------------||--(5)-----x-x----------8--8--8-x--x-----6-x--5-||--(4)-----x-x--5--x-x--5--5--5-x--x-----0-x----||-----------------------------------------------||-----------------------------------------------||-----------------------------------------------|
Gtr I PM|-------------------------------------------------||-------------------------------------------------||-(12)-12-12---12h14p12-0-10-10-10h==12p10-0-0----||-------------------------------------------------||----------------------------------------------5--||----------------------------------------------3--|
|
| Gtr II| PM|-------------------------------------------------||--(5)--5--5-5--------x-x--6--6----6--x----5-x----||-------------------------------------------------||-------------------------------------------------||----------------------------------------------5--||----------------------------------------------3--|
Build Up Gtrs I, II PM--------------------------------------------||-----------------------|-------------------------||-----------------------|-------------------------||-----------------------|-------------------------||-----------------------|-------------------------||-7-5-7-5-7-5-7-5-7-5-7-|-(7)-5-7-5-7-5-7-5-7-5-7-||-5-3-5-3-5-3-5-3-5-3-5-|-(5)-3-5-3-5-3-5-3-5-3-5-|
Gtr I PM--------------------------||-----------------------|------------------------------||-----------------------|------------------------------||-----------------------|------------------------------||-----------------------|------------------------------||-2-3-2-3-2-3-2-3-2-3-2-|-3-2-3---------2-3-2-3-2--3---||-----------------------|------------------------------|
|
| Gtr II| PM--------------------------||-----------------------|------------------------------||-----------------------|------------------------------||-----------------------|------------------------------||-----------------------|------------------------------||-5-7-5-7-5-7-5-7-5-7-5-|-7-5-7---------5-7-5-7-5--7---||-3-5-3-5-3-5-3-5-3-5-3-|-5-3-5---------3-5-3-5-3--5---|
|
| Gtrs III, IV| ~|-----------------------|------------------------------||-----------------------|------------------------------||-----------------------|------------------------------||-----------------------|-9-----(9)b10============(9)--||-----------------------|------------------------------||-----------------------|------------------------------|
SCREAM OUT MY NAME! Gtr I|--------------------|--------------------------||--------------------|--------------------------||--------9---9-------|-------9---9--------5-5-5-||-9--9--10--10--9--9-|-(9)--10--10--3-3-3-5-5-5-||-0--0---0---0--0--0-|-(0)---0---0--3-3-3-3-3-3-||--------------------|--------------1-1-1-3-3-3-|
|
| Gtr II|--------------------|--------------------------||-8--8---------------|--------------------------||--------9---9-------|-------9---9--------5-5-5-||-9--9--10--10--9--9-|-(9)--10--10--3-3-3-5-5-5-||-0--0---0---0--0--0-|-(0)---0---0--3-3-3-3-3-3-||--------------------|--------------1-1-1-3-3-3-|
|--------------------|--------------------------||--------------------|--------------------------||----0---9---0--0--0-|-(0)---9---9--------5-5-5-||-9--9--10--10--9--9-|-(9)--10--10--3-3-3-5-5-5-||-0--0---0---0--0--0-|-(0)---0---0--3-3-3-3-3-3-||--------------------|--------------1-1-1-3-3-3-|
|
|--------------------|--------------------------||------------8-------|-----------8--------------||-9--9---9------9--9-|-(9)---9------7-7-7-9-9-9-||-9--9--10--10--9--9-|-(9)--10--10--------------||-0--0---0---0--0--0-|-(0)---0---0--------------||--------------------|--------------------------|
|--------------------|-----------------------------||--------------------|-----------------------------||-0--0---0---0--0--0-|-(0)---0---0-----------5-5-5-||-9--9--10--10--9--9-|-(9)--10--10---3--3--3-5-5-5-||-0--0---0---0--0--0-|-(0)---0---0---3--3--3-3-3-3-||--------------------|---------------1--1--1-3-3-3-|
|
|--------------------|-----------------------------||-8------------------|-----------------------------||-0--9---9---9--0--0-|-(0)---0---0--12-12-12-9-9-9-||-9--9--10--10--9--9-|-(9)--10--10-----------------||-0--0---0---0--0--0-|-(0)---0---0-----------------||--------------------|-----------------------------|
6/8|---------------|------------------||--------8---8--|------------------||-0--0---0---0--|-0-----0----------||-9--9--10--10--|-9-----9-----x\---||-0--0---0---0--|-0-----0-----x\---||---------------|-------------x\---|
|
| PM--------||---------------|------------------||---------------|------------------||-7--7---9---9--|------------------||-9--9--10--10--|-------------x\---||-0--0---0---0--|-0-0-0-0-0-0-x\---||---------------|-0-0-0-0-0-0-x\---|
WAIT!!!|------------------|---------------|-12-------12-------10------------||------------------|---------------|---------------------------------||-7--7------9---9--|-7--7---9---9--|----10-10----10-10----10-10--0-0-||-9--9-----10--10--|-9--9--10--10--|---------------------------------||-0--0------0---0--|-0--0---0---0--|---------------------------------||------------------|---------------|---------------------------------|
|
| PM||------------------|---------------|-12-------12-------10------------||-8----------------|---------------|---------------------------------||-x--9------9---9--|-9--9---9---9--|----10-10----10-10----10-10--0---||-9--9-----10--10--|-9--9--10--10--|---------------------------------||-0--0-0-0--0---0--|-0--0---0---0--|---------------------------------||------------------|---------------|---------------------------------|
|-15----------15------------15s17-------------||------------------------------------20p17p=0-||-----14h=17-------14h==17--------------------||---------------------------------------------||---------------------------------------------||---------------------------------------------|
|
|-15--15--15--15---15---15--------------------||-13-(13)-10-(10)-(10)-(10)-------------------||---------------------------14-14-14-12-12-12-||---------------------------10-10-10-10-10-10-||---------------------------------------------||---------------------------------------------|
|------------------|------------8s12--||------------------|------------------||-7--7------9---9--|-7--7---9---------||-9--9-----10--10--|-9--9--10---------||-0--0------0---0--|-0--0---0---------||------------------|------------------|
|
| PM||------------------|------------------||-8----------------|-8----------------||-x--9------9---9--|-x--9---9---9-----||-9--9-----10--10--|-9--9--10--10-----||-0--0-0-0--0---0--|-0--0---0---0-----||------------------|------------------|
|-12-------12-------10--------------|-15-15-15-15-15-15-15s17-17s15-15----||-----------------------------5p0-0-|-13-13-13-13-13-13-------------------||----10-10----10-10----10-10--------|-14-14-14-14-14-14-------------------||-----------------------------------|-------------------------------------||-----------------------------------|-------------------------------------||-----------------------------------|-------------------------------------|
|
| PM---------------------||-12-------12-------10--------------|-15----15----15-15-15s17-17s15-------||----------------------------10p0---|-13----13----13-13-------------------||----10-10----10-10----10-10--------|--x-----x-----x--x-------------------||-----------------------------------|-10----10----10-10-------------------||-----------------------------------|-------------------------------------||-----------------------------------|-------------------------------------|
|--------------------|--------------------||-12--12-----13--13--|-12--12-----13--13--||--0---0------0---0--|--0---0------0---0--||--9---9-----10--10--|--9---9-----10--10--||--0---0------0---0--|--0---0------0---0--||--------------------|--------------------|
|
| PM| PM||--------------------|--------------------||--8---8-------------|--8---8-------------||--x---x------9---9--|--x---x-------------||--9---9-----10--10--|--9---9-----10--10--||--0---0-0-0--0---0--|--0---0-0-0--0---0--||--------------------|--------------------|
|-12-------12--------12-------10----10---------|-15---------15-------12----12-----------||-------------------------------------------0--|------------------------10h13-10p=0-0---||-----10--------10--------10-----10-----10-----|-----14h=17----14h17--------------------||----------------------------------------------|----------------------------------------||----------------------------------------------|----------------------------------------||----------------------------------------------|----------------------------------------|
|
|-12-(12)-(12)--12--(12)-(12)-10---------------|-15--15--15-15-15-15-13-13-13-13--------||----------10-------------10-------------------|-13-(13)-10-10-10-10-10-10-10-10-10-8---||-----10--(10)-(10)--10----------10----(10)----|----------------------------------------||----------------------------------------------|----------------------------------------||----------------------------------------------|----------------------------------------||----------------------------------------------|----------------------------------------|
|------------------|---------------|-12-(12)-(12)-12-(12)-(12)-10-(10)--10--(10)-------||------------------|---------------|---------------------------------------------10s13-||------------------|---------------|-----10---10------10---10------10--------10--------||-9--9-----10--10--|-9--9--10--10--|---------------------------------------------------||-0--0------0---0--|-0--0---0---0--|---------------------------------------------------||------------------|---------------|---------------------------------------------------|
|
| PM||------------------|---------------|-12-(12)-(12)-12-(12)-(12)-10-(10)-(10)--10--------||-8--8-------------|-8--8----------|----------------------------------------------0----||-x--x------9---9--|-x--x----------|-----10---10------10---10------10---10-------------||-9--9-----10--10--|-9--9--10--10--|---------------------------------------------------||-0--0-0-0--0---0--|-0--0---0---0--|---------------------------------------------------||------------------|---------------|---------------------------------------------------|
|-15-15-15-15-15-15-15-15-------------||-13-13-13-13-13-13-13-13-------------||-14-14-14-14-14-14-14-14-14p12-------||-------------------------------------||-------------------------------------||-------------------------------------|
|
|-15-15-15-15-15-15-15-17-------------||--x--x--x--x--x--x--x--x-------------||-14-14-14-14-14-14-14-14-14-12-12-12-||-10-10-10-10-10-10-10-10-10--9--9--9-||-------------------------------------||-------------------------------------|
|---------------------|------------------------||-5-5-----------------|------------------------||-2-2-----------------|------------------------||-2-2-----------------|------------------------||-0-0-----------------|------------------------||---------------------|------------------------|
|
|---------------------|------------------------||-5-5-----------------|------------------------||-2-2------10-10------|-9-9-9-9-9s10-10-12--10-||-2-2------10-10------|-7-7--------------------||-0-0--x-x--0--0--x-x-|-0-0--------------------||---------------------|------------------------|
|---------------------|-----------------------------||-5-5-----------------|-----------------------------||-2-2-----------------|-----------------------------||-2-2-----------------|-----------------------------||-0-0-----------------|-----------------------------||---------------------|-----------------------------|
|
|---------------------|-----------------------------||---------------------|------------------12--(12)---||-9-9------10-10------|-9-9-9-9-9s10-10-(10)-(10)---||-7-7------10-10------|-7-7-------------------------||-0-0--x-x--0--0--x-x-|-0-0-------------------------||---------------------|-----------------------------|
|-------------------|----------------------||-5-5--5-5-6-6--6-6-|-5-5--5-5-5s6-6-8---6-||-2-2--2-2-5-5--5-5-|-2-2------------------||-2-2--2-2-5-5--5-5-|-2-2------------------||-0-0--0-0-3-3--3-3-|-0-0------------------||-------------------|----------------------|
|
|-------------------|----------------------||-5-5--5-5-6-6--6-6-|-5-5--5-5-5s6-6-8---6-||-------------------|----------------------||-------------------|----------------------||-------------------|----------------------||-------------------|----------------------|
|
| Gtrs V, VI|-------------------|----------------------||-1-1--1-1-1-1--1-1-|-1-1--1---1-1-1-1-1-1-||-4-4--4-4-4-4--4-4-|-4-4--4---4-4-4-4-4-4-||-------------------|----------------------||-------------------|----------------------||-------------------|----------------------|
|-------------------|------------------7--8p0---||-5-5--5-5-6-6--6-6-|-5-5--5--5---5s=6------5---||-2-2--2-2-5-5--5-5-|-2-2-----------------------||-2-2--2-2-5-5--5-5-|-2-2-----------------------||-0-0--0-0-3-3--3-3-|-0-0-----------------------||-------------------|---------------------------|
|
|-------------------|------------------7--8p0---||-5-5--5-5-6-6--6-6-|-5-5--5--5---5s=6------5---||-------------------|---------------------------||-------------------|---------------------------||-------------------|---------------------------||-------------------|---------------------------|
|
|-------------------|---------------------------||-1-1--1-1-1-1--1-1-|-1-1--1-(1)-(1)------------||-4-4--4-4-4-4--4-4-|-4-4--4-(4)-(4)------------||-------------------|---------------------------||-------------------|---------------------------||-------------------|---------------------------|
|-------------------|----------------------||-5-5--5-5-6-6--6-6-|-5-5--5-5-5s6-6-8---6-||-2-2--2-2-5-5--5-5-|-2-2------------------||-2-2--2-2-5-5--5-5-|-2-2------------------||-0-0--0-0-3-3--3-3-|-0-0------------------||-------------------|----------------------|
|
|-------------------|----------------------||-5-5--5-5-6-6--6-6-|-5-5--5-5-5s6-6-8---6-||-------------------|----------------------||-------------------|----------------------||-------------------|----------------------||-------------------|----------------------|
|
|-------------------|----------------------||-1-1--1-1-1-1--1-1-|-1-1--1---1-1-1-1-1---||-4-4--4-4-4-4--4-4-|-4-4--4---4-4-4-4-4---||-------------------|----------------------||-------------------|----------------------||-------------------|----------------------|
13/16|--------------------|----------------7-8-0-----||-6-5--5-5-6--6--6-6-|-5-5--5-5-5s6-6-----------||-2-2--2-2-5--5--5-5-|-2-2------------------5---||-2-2--2-2-5--5--5-5-|-2-2------------------7---||-0-0--0-0-3--3--3-3-|-0-0----------------------||--------------------|----------------------5---|
|
|--------------------|----------------7-8-0-----||-5-5--5-5-6--6--6-6-|-5-5--5-5-5s6-6-----------||--------------------|----------------------5---||--------------------|----------------------7---||--------------------|----------------------7---||--------------------|----------------------5---|
|
|--------------------|--------------------------||-1-1--1-1-1--1--1-1-|-1------------------------||-4-4--4-4-4--4--4-4-|-4------------------------||--------------------|--------------------------||--------------------|--------------------------||--------------------|--------------------------|
Chorus 4/4 7/8 Gtr I|-------------------------------|----------------------------||-------------------------------|----------------------------||-(5)-5-5--5-5-5-5-5-5--5-5-5-5-|-(5)-5-5--5-5-5--10-10-10-5-||-(7)-7-7--7-7-7-7-7-7--7-7-7-7-|-(7)-7-7--7-7-7---9--9--9-7-||----------------6-6-6--6-6-6-5-|-(5)-5-5--5-5-5---8--8--8---||-(5)-5-5--5-5-5----------------|--------------------------5-|
|
|-------------------------------|----------------------------||-------------------------------|----------------------------||-(5)-5-5--5-5-5-5-5-5--5-5-5-5-|-(5)-5-5--5-5-5--10-10-10-5-||-(7)-7-7--7-7-7-7-7-7--7-7-7-7-|-(7)-7-7--7-7-7---9--9--9-7-||-(7)-7-7--7-7-7-6-6-6--6-6-6-5-|-(5)-5-5--5-5-5---8--8--8-7-||-(5)-5-5--5-5-5----------------|--------------------------5-|
4/4|-------------------------------|--------------------------------------------||-------------------------------|--------------------------------------------||-(5)-5-5--5-5-5-5-5-5--5-5-5-5-|-(5)-5-5--5-5-5-10--10--------------------5-||-(7)-7-7--7-7-7-7-7-7--7-7-7-7-|-(7)-7-7--7-7-7--9---9--------------------7-||----------------6-6-6--6-6-6-5-|-(5)-5-5--5-5-5--8---8----------------------||-(5)-5-5--5-5-5----------------|------------------------------------------5-|
|
|-------------------------------|-------------------------8--(8)-------(8)---||-------------------------------|------------------------12-(12)b12.5r(12)---||-(5)-5-5--5-5-5-5-5-5--5-5-5-5-|-(5)-5-5--5-5-5-10--10--------------------5-||-(7)-7-7--7-7-7-7-7-7--7-7-7-7-|-(7)-7-7--7-7-7--9---9--------------------7-||-(7)-7-7--7-7-7-6-6-6--6-6-6-5-|-(5)-5-5--5-5-5--8---8--------------------7-||-(5)-5-5--5-5-5----------------|------------------------------------------5-|
7/8|-----------------------------|----------------------------||-----------------------------|----------------------------||-5-5-5--5-5-5-5-5-5--5-5-5-5-|-(5)-5-5--5-5-5--10-10-10-5-||-7-7-7--7-7-7-7-7-7--7-7-7-7-|-(7)-7-7--7-7-7---9--9--9-7-||--------------6-6-6--6-6-6-5-|-(5)-5-5--5-5-5---8--8--8---||-5-5-5--5-5-5----------------|--------------------------5-|
|
|-----------------------------|----------------------------||-----------------------------|----------------------------||-5-5-5--5-5-5-5-5-5--5-5-5-5-|-(5)-5-5--5-5-5--10-10-10-5-||-7-7-7--7-7-7-7-7-7--7-7-7-7-|-(7)-7-7--7-7-7---9--9--9-7-||-7-7-7--7-7-7-6-6-6--6-6-6-5-|-(5)-5-5--5-5-5---8--8--8-7-||-5-5-5--5-5-5----------------|--------------------------5-|
4/4|-------------------------------|-------------------------------------------||-------------------------------|-------------------------------------------||-(5)-5-5--5-5-5-5-5-5--5-5-5-5-|-(5)-5-5--5-5-5-10--10---------------------||-(7)-7-7--7-7-7-7-7-7--7-7-7-7-|-(7)-7-7--7-7-7--9---9---------------------||----------------6-6-6--6-6-6-5-|-(5)-5-5--5-5-5--8---8---------------------||-(5)-5-5--5-5-5----------------|-------------------------------------------|
|
|-------------------------------|-------------------------8--(8)-------(8)--||-------------------------------|------------------------12-(12)b12.5r(12)--||-(5)-5-5--5-5-5-5-5-5--5-5-5-5-|-(5)-5-5--5-5-5-10--10---------------------||-(7)-7-7--7-7-7-7-7-7--7-7-7-7-|-(7)-7-7--7-7-7--9---9---------------------||-(7)-7-7--7-7-7-6-6-6--6-6-6-5-|-(5)-5-5--5-5-5--8---8---------------------||-(5)-5-5--5-5-5----------------|-------------------------------------------|
|---------------|---------------||-(5)----(5)----|-(5)----(5)----||--2------2-----|--2------2-----||--2------2-----|--2------2-----||--0------0-----|--0------0-----||---------------|---------------|
|
|---------------|---------------||-(5)----(5)----|-(5)----(5)----||--2------2-----|--2------2-----||--2------2-----|--2------2-----||--0------0-----|--0------0-----||---------------|---------------|
Outro|-7----7--(7)-8---8-(8)-|-7---7-(7)----------------||-----------------------|--------------------------||---7------7----9----9--|---7----7--7-7---7-9-9--9-||-----------------------|-----------x-x---x-x-x--x-||-----------------------|-----------5-5---5-7-7--7-||-----------------------|--------------------------|
|
|-7----7--(7)-8---8-(8)-|-7---7-(7)----------------||-----------------------|--------------------------||---7------7----9----9--|---7----7--7-7---7-9-9--9-||-----------------------|-----------x-x---x-x-x--x-||-----------------------|-----------5-5---5-7-7--7-||-----------------------|--------------------------|
|
| Gtrs V, VI|-----------------------|--------------------------||-----------------------|---------------0----------||-4-0-----------0-------|---0----------------------||-5---------------------|--------------------------||---7-(7)---------------|---------------0----------||-----------------------|--------------------------|
|-7---7-(7)-8---8-(8)-|-7---7-(7)---------------------||---------------------|-------------------------------||---7----7----9----9--|---7----7--12-12---12-9-9---9--||---------------------|------------x--x----x-x-x---x--||---------------------|-----------10-10---10-7-7---7--||---------------------|-------------------------------|
|
|-7---7-(7)-8---8-(8)-|-7---7-(7)---------------------||---------------------|-------------------------------||---7----7----9----9--|---7----7--12-12---12-9-9---9--||---------------------|------------x--x----x-x-x---x--||---------------------|-----------10-10---10-7-7---7--||---------------------|-------------------------------|
|
|---------------------|-------------------------------||---------------------|-------------------------------||-------------0-------|---0-------------0-------------||-------------5----5--|---5----5--------5--------5----||---------------------|-------------------------------||---------------------|-------------------------------|
Gtrs I, II|-7---7-(7)-8---8-(8)-|-7---7-(7)-------------||---------------------|-----------------------||---7----7----9----9--|---7----7--7-7-7-9-9-9-||---------------------|-----------x-x-x-x-x-x-||---------------------|-----------5-5-5-7-7-7-||---------------------|-----------------------|
|
| Gtr V|---------------------|-----------------------||---------------------|-----------------------||---0---------0-------|---0-------------------||---------------------|-----------------------||---------------------|-----------------------||---------------------|-----------------------|
|
| Gtr VI|---------------------|-----------------------||---------------------|-----------------------||---0---------0----0--|---0----0--------------||---------------------|-----------------------||---------------------|-----------------------||---------------------|-----------------------|
|-7---7-(7)-8---8-(8)-|-10----10-(10)----------------|--------||---------------------|------------------------------|--------||---7----7----9----9--|----12-----12--12-12-12-9-9-9-|-2------||---------------------|----------------x--x--x-x-x-x-|-2------||---------------------|---------------10-10-10-7-7-7-|-0------||---------------------|------------------------------|--------|
|
|---------------------|------------------------------|--------||---------------------|------------------------------|--------||---0---------0-------|------------------------------|--------||---------------------|------------------------------|--------||---------------------|------------------------------|--------||---------------------|------------------------------|--------|
|
|---------------------|------------------------------|--------||---------------------|------------------------------|--------||---0---------0-------|------------------------------|--------||---------------------|------------------------------|--------||---------------------|------------------------------|--------||---------------------|------------------------------|--------|
Tap to rate this tab
 
# A B C D E F G H I J K L M N O P Q R S T U V W X Y Z