The Flow - Fighting Dreamers Go tab

This is my first tab. Sorry, I couldn't get the solo on. I'm going to as soon as I learn 
its just too late now. Add me on Msn if you want to talk Naruto, guitar, music, 
Kajin_123@hotmail.com
If theirs any corrections I need, email me, or comment.


Intro|-----------------------------------------------||-----------------------------------------------||------4---4---4-------------4-4-4-4-4----------||------4---4---4------20\----4-4-4-4-4----------||------2---2---2------20\----2-2-2-2-2----------||---------------------20\-----------------------|
Chorus|-------------------------------------------------------||-------------------------------------------------------||----4-4-4-4--------------------------------------------||----4-4-4-4--2-2-2-2--4-4-4-4--2-2-2-2-----------------||----2-2-2-2--2-2-2-2--4-4-4-4--2-2-2-2-----------------||-------------0-0-0-0--2-2-2-2--0-0-0-0-----------------|
|-------------------------------------------------------||-------------------------------------------------------||----4-4-4-4--------------------------------------------||----4-4-4-4--2-2-2-2--4-x-x-x-x-4-x-x-4-x-x-4----------||----2-2-2-2--2-2-2-2--4-x-x-x-x-4-x-x-4-x-x-4----------||-------------0-0-0-0--2-x-x-x-x-2-x-x-2-x-x-2----------|
|-------------------------------------------------------||-------------------------------------------------------||----4-4-4-4--------------------------------------------||----4-4-4-4--2-2-2-2--4-4-4-4--2-2-2-2-----------------||----2-2-2-2--2-2-2-2--4-4-4-4--2-2-2-2-----------------||-------------0-0-0-0--2-2-2-2--0-0-0-0-----------------|
|-------------------------------------------------------||-------------------------------------------------------||----4-4-4-4--------------------------------------------||----4-4-4-4--2-2-2-2--4-4-4-4-4-4----------------------||----2-2-2-2--2-2-2-2--4-4-4-4-4-4----------------------||-------------0-0-0-0--2-2-2-2-2-2----------------------|
Verse 1|--------------------------------------------------------||--------------------------------------------------------||----4-4---4-4---4-4---4-4--5-5--------------------------||----4-4---4-4---4-4---4-4--5-5--------------------------||----2-2---2-2---2-2---2-2--3-3--------------------------||--------------------------------------------------------|
|--------------------------------------------------------||--------------------------------------------------------||----4-4---4-4---4-4---4-4---2-2--3-3--------------------||----4-4---4-4---4-4---4-4---2-2--3-3--------------------||----2-2---2-2---2-2---2-2---0-0--1-1--------------------||--------------------------------------------------------|
|--------------------------------------------------------||--------------------------------------------------------||----4-4---4-4---4-4---4-4--5-5--------------------------||----4-4---4-4---4-4---4-4--5-5--------------------------||----2-2---2-2---2-2---2-2--3-3--------------------------||--------------------------------------------------------|
|--------------------------------------------------------||--------------------------------------------------------||----4-4---4-4-------2--2--2--4--4--4--------------------||----4-4---4-4-------2--2--2--4--4--4--------------------||----2-2---2-2-------0--0--0--2--2--2--------------------||--------------------------------------------------------|
Verse 2|--------7--6-7---------7--6-7------7--6-7-7-9-7-7-6-7--||-----------------4-------------7-----------------------||---4-------------4-------------6-----------------------| (x2)|---4-------------2-------------4-----------------------||---2---------------------------------------------------||-------------------------------------------------------|
|-------------------------------------------------------||-----------4-------7-----------------------------------||---4-------4-------6------4----x-x-4--x-x--------------||---4-------2-------4------4----x-x-4--x-x--------------||---2----------------------2----x-x-2--x-x--------------||-------------------------------------------------------|
|-------------------------------------------------------||-----------4-------7-----------------------------------||-4-4-------4-------6------4---x-x-x-4------------------||-4-4-------2-------4------4---x-x-x-4------------------||-2-2----------------------2---x-x-x-2------------------||-------------------------------------------------------|
Verse 3|--------------------------------------------------------||--------------------------------------------------------||----4-4---4-4---4-4---4-4--5-5--------------------------||----4-4---4-4---4-4---4-4--5-5--------------------------||----2-2---2-2---2-2---2-2--3-3--------------------------||--------------------------------------------------------|
|-------------------------------12-11-9------------------||---------------------------12---------------------------||----4-4---4-4---4--------11--11-------------------------||----4-4---4-4---4---------------------------------------||----2-2---2-2---2---------------------------------------||--------------------------------------------------------|
Tap to rate this tab
 
# A B C D E F G H I J K L M N O P Q R S T U V W X Y Z