Misirlou tab with lyrics by The Surf Coasters - Easy chords and tabs for guitar

The Surf Coasters – Misirlou tab

Misirlou
The Surf Coasters

Tabbed by:
Toshiro

Tuning:
E-A-D-G-B-E

--------------------------------------------------------------------

|----------------------------------------------------------------||----------------------------------------------------------------||----------------------------------------------------------------||----------------------------------------------------------------||----------------------------------------------------------------||-16\0--0-0-0-0-0--0-0-0-0-0-0-0-0-0--0-0-0-0-0--0-0-0-0-0-0-0-0-|
|-------------------------------------------------------------||-------------------------------------------------------------||-------------------------------------------------------------||-------------------------------------------------------------||-------------------------------------------------------------||-0--0-0-0-0-1--4--4-4-4-4-5--7--7-7-7-7-8--8-11-11-11-8--8-8-|
|-----------------------------------------------------------||-----------------------------------------------------------||-----------------------------------------------------------||-----------------------------------------------------------||-----------------------------------------------------------||-7--7-7-7-7-7--7-7-7-7-7-7-7-7-19--18=\=\=\=\=\=\=\=\=\=\=-|
|-------------------------------------------------------------||-------------------------------------------------------------||-------------------------------------------------------------||-------------------------------------------------------------||-------------------------------------------------------------||-0--0-0-0-0-1--4--4-4-4-4-5--7--7-7-7-7-8--8-11-11-11-8--8-8-|
|-------------------------------------------------------------||-------------------------------------------------------------||-------------------------------------------------------------||-------------------------------------------------------------||-------------------------------------------------------------||-7--7-7-7-7-7--7-7-7-7-7-7-7-7-7--7-7-7-7-7--7-7-7-7-7-7-7-7-|
|----------------------------------------------------------||----------------------------------------------------------||----------------------------------------------------------||----------------------------------------------------------||----------------------------------------------------------||-8--8-8-8-7-8-8-7--7-7-5--5-5-7--7-7-7-5-7-7-5--5-5-4--0--|
|-------------------------------------------------------------||-------------------------------------------------------------||-------------------------------------------------------------||-------------------------------------------------------------||-------------------------------------------------------------||-4--4-4-4-4-4--4-4-4-4-4-4-4-4-4--4-4-4-4-4--4-4-4-4-4-4-0-0-|
|----------------------------------------------------------||----------------------------------------------------------||----------------------------------------------------------||----------------------------------------------------------||----------------------------------------------------------||-7--7-7-7-5-7-7-5--5-5-4--4-4-4--4-5-4--4-5-4--4-4-1--1-1-|
|-----0---16=\=\=\=\=\=\=\=\=-||-----0---16=\=\=\=\=\=\=\=\=-||-----x-----------------------||-----2-----------------------||-----2-----------------------||-0---0-----------------------|
|-0--0-0-0-0-1--4--4-4-4-4-5--7--7-7-7-7-8--8-11-11-11-8--11-8-||--------------------------------------------------------------||--------------------------------------------------------------||--------------------------------------------------------------||--------------------------------------------------------------||--------------------------------------------------------------|
|-7--7-7-7-7-7--7-7-7-7-7-7-7-7-19=\=\=\=\=\=\=\=\=\=\=-||-------------------------------19=\=\=\=\=\=\=\=\=\=\=-||-------------------------------------------------------||-------------------------------------------------------||-------------------------------------------------------||-------------------------------------------------------|
|-0--0-0-0-0-1--4--4-4-4-4-5--7--7-7-7-7-8--8-11-11-11-8--11-8-||--------------------------------------------------------------||--------------------------------------------------------------||--------------------------------------------------------------||--------------------------------------------------------------||--------------------------------------------------------------|
|-7--7-7-7-7-7--7-7-7-7-7-7-7-7-10-8-7-7-7-7-7-7-7-7-||----------------------------------------------------||----------------------------------------------------||----------------------------------------------------||----------------------------------------------------||----------------------------------------------------|
|-8--8-8-8-7-8-8-7--7-7-5--5-5-7--7-7-7-5-7-7-5--5-5-4--0--||----------------------------------------------------------||----------------------------------------------------------||----------------------------------------------------------||----------------------------------------------------------||----------------------------------------------------------|
|-4--4-4-4-4-4--4-4-4-4-4-4-4-4-16=\=\=\=\=\=\=\=\=\=\=-||-------------------------------16=\=\=\=\=\=\=\=\=\=\=-||-------------------------------------------------------||-------------------------------------------------------||-------------------------------------------------------||-------------------------------------------------------|
|-0--4--5--7--7-7-7-5-7-7-5--5-5-4--4-4-4--4-5-4--4-5-4--4-4-1--1-1-||-------------------------------------------------------------------||-------------------------------------------------------------------||-------------------------------------------------------------------||-------------------------------------------------------------------||-------------------------------------------------------------------|
|-0---0-w----0-----0--1--2--3--4--||-----0-w-------4-----------------||-----x---------------------------||-----2-w-------------------------||-----2-w-------------------------||-----0-w-------------------------|
|-5---5-w-w-----4--5--5/7---7-w-w-----||-----5-w-w-----------------8-w-w-----||-----5-w-w-----------------7-w-w-----||-----7-w-w-----------------9-w-w-----||-------------------------------------||-------------------------------------|
|---7--------7---8---7--8--11--8--11--12-w-w--||-------10----------------------------12-w-w--||-7---7----7---7------------------------------||---------------------------------------------||---------------------------------------------||---------------------------------------------|
|--13--12--12h13p12--12--10---12--10--10h12p10--10--8--7-----8--7--4--0-w--||--------------------------------------------------------------------------||--------------------------------------------------------------------------||--------------------------------------------------------------------------||--------------------------------------------------------------------------||--------------------------------------------------------------------------|
|-7--8--10--10-10-10--8h10p8--8--7---7--4--7--1--4--1--0--0-w-w-w--||---------------------------------------------------------0-w-w-w--||---------------------------------------------------------x--------||---------------------------------------------------------2-w-w-w--||---------------------------------------------------------2-w-w-w--||---------------------------------------------------------0-w-w-w--|
|--------------------------------------------------------------||--------------------------------------------------------------||--------------------------------------------------------------||--------------------------------------------------------------||--------------------------------------------------------------||-16\5--5-5-5-5-5--5-5-5-5-5-5-5-5-5--5-5-5-5-5--5-5-5-5-4--5--|
|-----------------------------------------------------------||-----------------------------------------------------------||-----------------------------------------------------------||-----------------------------------------------------------||-----------------------------------------------------------||-7--7-7-7-7-7--7-7-7-7-7-7-7-7-7--7-7-7-7-7--7-7-7-7-5--7--|
|--------------------------------------------------------||--------------------------------------------------------||--------------------------------------------------------||--------------------------------------------------------||--------------------------------------------------------||-8--8-8-8-8-8--8-8-8-8-7--8--11--11-11-11-11-11--8--11--|
|-----------------------------------------------------------------------------||-----------------------------------------------------------------------------||-----------------------------------------------------------------------------||-----------------------------------------------------------------------------||-----------------------------------------------------------------------------||-12--12-12-12-12-12--12-12-12-12-12-12-12-12-12--12-12-12-12-12--12-12-12-12-|
|---------------------12--||-----------------12------||-------------13----------||---------14--------------||-----14------------------||-12----------------------|
|-13--13-13-13-13-12-13-13-12--12-12-10--10-10-12--12-12-12-10-10-12-10--10-10-8--8-8-||-------------------------------------------------------------------------------------||-------------------------------------------------------------------------------------||-------------------------------------------------------------------------------------||-------------------------------------------------------------------------------------||-------------------------------------------------------------------------------------|
|-7--7-7-7-7-7-7-7-7-7-7-7-7-7-7-7-7-7-7-7-7-7-7-7-7-7-7-7-7-0-0-||----------------------------------------------------------------||----------------------------------------------------------------||----------------------------------------------------------------||----------------------------------------------------------------||----------------------------------------------------------------|
|-10--10-10-10-8-8-10-8--8-8-7--7-7-7--7-8-7-4--7--1--4--0--0-w-w-w--||-----------------------------------------------------------0-w-w-w--||-----------------------------------------------------------x--------||-----------------------------------------------------------2-w-w-w--||-----------------------------------------------------------2-w-w-w--||-----------------------------------------------------------0-w-w-w--|
|---4--1--0-----------------------------------------||------------3--1--0--------------------------------||---------------------2--1-----1------1--1h2p1------||---------------------------3-----3-------------2---||---------------------------------------------------||---------------------------------------------------|pm..................................
|--------------------------------------||--------------------------------------||--------------------------------------||-p0h2p0h2p0h2p0h2p0h2p0h2p0h2p0h2p0---||--------------------------------------||--------------------------------------|
|---------------------------------------------||---------------------------------------------||---------1===2===4===2===1===---1==---1==----||-2===3===--------------------3==---3==---3==-||---------------------------------------------||---------------------------------------------|
|---------------------------------------------||---------------------------------------------||---------1===2===4===2===1===---1==---1==----||-2===3===--------------------3==---3==---3==-||---------------------------------------------||---------------------------------------------|
|----0-w-w-----[12]--------w-w-w----------[5]--w-w-w-w--||----0-w-w-----------[12]--w-w-w-----[5]-------w-w-w-w--||----x--------------------------------------------------||-2--2-w-w----------------------------------------------||----2-w-w----------------------------------------------||----0-w-w----------------------------------------------|
|--------------------------------------------------------------------||--------------------------------------------------------------------||--------------------------------------------------------------------||--------------------------------------------------------------------||----------------------------2-2-2-2-------------------------2-2-2-2-||-16\0-0-0-0-0-0-4-4-4-4-4-4---------0-0-0-0-0-0-4-4-4-4-4-4---------|
|---------------------------------------------------------------------------||---------------------------------------------------------------------------||---------------------------------------------------------------------------||---------------------------------------------------------------------------||-0-0-0-0-0-0-3-3-3-3-3-3-2-2-2-2-0-0-0-0-0-0-------------------------------||---------------------------------------------1-1-1-1-1-3-1-1-1-3-1-1-3-1-1-|
|-----------------------------------------------------------------||-----------------------------------------------------------------||-----------------------------------------------------------------||-----------------------------------------------------------------||-------------------------2-2-2-2-------------------------2-2-2-2-||-0-0-0-0-0-0-4-4-4-4-4-4---------0-0-0-0-0-0-4-4-4-4-4-4---------|
|---------------------------------------------------------------------------||---------------------------------------------------------------------------||---------------------------------------------------------------------------||---------------------------------------------------------------------------||-0-0-0-0-0-0-3-3-3-3-3-3-2-2-2-2-0-0-0-0-0-0-------------------------------||---------------------------------------------1-1-1-1-1-3-1-1-1-3-1-1-3-1-1-|
|-0---0--1--3--1--0---------------------------------------------------------||-0-------------------0---3--1--0--1----------------0--1--0-----------------||-x------------------------------------2---2--1--2-----------2--1--2--1-----||-2----------------------------------------------------------------------3--||-2-------------------------------------------------------------------------||-0-------------------------------------------------------------------------|
|-----------------------------------------------------------------||-----------------------------------------------------------------||---------------------0-0-----------------------------------------||-2-2-2-2-2-2-2-2-3-3-----3-3-0-0-2-2-2-2-2-2---------0-0---------||---------------------------------------------2-2-2-2-----3-3-2-2-||-----------------------------------------------------------------|
|-----------------------------------------------------------------||-----------------------------------------------------------------||-----------------------------------------------------------------||-----------------------------------------------------------------||-3-3-3-3-3-3-0-0-0-0-0-0-----------------------------------------||-------------------------4-4-5-5-5-5-4-4-5-5-4-4-4-4-5-5-4-4-1-1-|
|-----0-w---0-------w---||-----0-w----0------w---||-----x-------x---------||-----2-w------2----w---||-----2-w-------2---w---||-0---0-w--------0--w---|
|----0-----0-----0-----0-----0-----0-----0-----0--||-------------------0-----------------------0-----||-------------1-----------1-----------1-----------||-2-----2-----------------------2-----------------||-------------------------------------------------||-------------------------------------------------|pm................................................
|----0-----0-----0-----0-----0-----0-----0-----0--||-------------1-----0-----------------------------||-2-----2-----------------2-----2-----0-----------||-------------------------------------------3-----||-------------------------------------------------||-------------------------------------------------|pm................................................
|----0-----0-----0-----0-----0-----0-----0-----0--||-------------------0-----------------------0-----||-------------1-----------1-----------1-----------||-2-----2-----------------------2-----------------||-------------------------------------------------||-------------------------------------------------|pm................................................
|----0-----0-----0-----0-----0-----0-----0-----0--||-------------1-----0-----------------------------||-2-----2-----------------2-----2-----0-----------||-------------------------------------------3-----||-------------------------------------------------||-------------------------------------------------|pm................................................
|----0-----0-----0-----0-----0-----0-----0-----0--||-------------------0-----------------------0-----||-------------1-----------1-----------1-----------||-2-----2-----------------------2-----------------||-------------------------------------------------||-------------------------------------------------|
|----0-----0-----0-----0-----0-----0-----0-----0--||-------------1-----0-----------------------------||-2-----2-----------------2-----2-----0-----------||-------------------------------------------3-----||-------------------------------------------------||-------------------------------------------------|
|----0-----0-----0-----0-----0-----0-----0-----0--||-------------------0-----------------------0-----||-------------1-----------1-----------1-----------||-2-----2-----------------------2-----------------||-------------------------------------------------||-------------------------------------------------|
|----0-----0-----0-----0-----0-----0-----0-----0--||-------------1-----0-----------------------------||-2-----2-----------------2-----2-----0-----------||-------------------------------------------3-----||-------------------------------------------------||-------------------------------------------------|
|-0---0-0-0-1---1-1-1-0---0-0-0-1---1-1-1-||-0---0-0-0-1---1-1-1-0---0-0-0-1---1-1-1-||-x---x-x-x-x---x-x-x-x---x-x-x-x---x-x-x-||-2---2-2-2-3---3-3-3-2---2-2-2-3---3-3-3-||-2---2-2-2-3---3-3-3-2---2-2-2-3---3-3-3-||-0---0-0-0-1---1-1-1-0---0-0-0-1---1-1-1-|
|-0---------------------------------------||---------0-------1-----1-----3-----1-----||-----1-------1------2-----2-----2-----2--||-----------------------------------------||-----------------------------------------||-----------------------------------------|
|----------------------0--1--1p0--------------------||-------------0--1--3-------------3--1--0-----------||-------1--2-------------------------------2--1-----||-2--3-------------------------------------------3--||---------------------------------------------------||---------------------------------------------------|
|-------------0------------------------------------||-------0-----------0------1-----1-----3-----1-----||----1-----1-----1-----1------2-----2-----2-----2--||-2------------------------------------------------||--------------------------------------------------||--------------------------------------------------|
|-1--1p0--------------------------------------------||---------3--1--0-----------------------------------||------------------2--1-----------------------------||------------------------3--2--0--------------------||---------------------------------3--2--0--2--0-----||------------------------------------------------1--|
|-0-----0-------w-----||-0------0------w-----||-x-------x-----------||-2--------2----w-----||-2---------2---w-----||-0----------0--w-----|
|-0--0--0--12-0-0-0-11-0-0-0-10-0-0-0-9-0-0-0-8-0-0-0-7-0-0-0-6-0-0-0-5-0-0-0-||-----------------------------------------------------------------------------||-----------------------------------------------------------------------------||-----------------------------------------------------------------------------||-----------------------------------------------------------------------------||-----------------------------------------------------------------------------|
|-4-0-0-0-3-0-0-0-2-0-0-0-1-0-0-0-0---0-----||-------------------------------------0-----||-------------------------------------x-----||-------------------------------------2-----||-------------------------------------2-----||-------------------------------------0-----|
|-----------------------------------------------------------------------------||-----------------------------------------------------------------------------||-----------------------------------------------------------------------------||-----------------------------------------------------------------------------||-----------------------------------------------------------------------------||-0--0--0--12-0-0-0-11-0-0-0-10-0-0-0-9-0-0-0-8-0-0-0-7-0-0-0-6-0-0-0-5-0-0-0-|
|-------------------------------------0-----||-------------------------------------0-----||-------------------------------------x-----||-------------------------------------2-----||-------------------------------------2-----||-4-0-0-0-3-0-0-0-2-0-0-0-1-0-0-0-0---0-----|
|----------------------------------------------------------------||----------------------------------------------------------------||----------------------------------------------------------------||----------------------------------------------------------------||----------------------------------------------------------------||-16\0--0-0-0-0-0--0-0-0-0-0-0-0-0-0--0-0-0-0-0--0-0-0-0-0-0-0-0-|
|---------------------------------------------------------||---------------------------------------------------------||---------------------------------------------------------||---------------------------------------------------------||---------------------------------------------------------||-0--0-0-0-0-0--0-0-0-0-0-0-0-0-19=\=\=\=\=\=\=\=\=\=\=\=-|
|-----------------------------------------------------------------||-----------------------------------------------------------------||-----------------------------------------------------------------||-----------------------------------------------------------------||-------------------------2-2-2-2-------------------------2-2-2-2-||-0-0-0-0-0-0-4-4-4-4-4-4---------0-0-0-0-0-0-4-4-4-4-4-4---------|
|---------------------------------------------------------------------------||---------------------------------------------------------------------------||---------------------------------------------------------------------------||---------------------------------------------------------------------------||-0-0-0-0-0-0-3-3-3-3-3-3-2-2-2-2-0-0-0-0-0-0-------------------------------||---------------------------------------------1-1-1-1-1-3-1-1-1-3-1-1-3-1-1-|
|-----------------------------------------------------------------||-----------------------------------------------------------------||-----------------------------------------------------------------||-----------------------------------------------------------------||-------------------------2-2-2-2-------------------------2-2-2-2-||-0-0-0-0-0-0-4-4-4-4-4-4---------0-0-0-0-0-0-4-4-4-4-4-4---------|
|---------------------------------------------------------------------------||---------------------------------------------------------------------------||---------------------------------------------------------------------------||---------------------------------------------------------------------------||-0-0-0-0-0-0-3-3-3-3-3-3-2-2-2-2-0-0-0-0-0-0-------------------------------||---------------------------------------------1-1-1-1-1-3-1-1-1-3-1-1-3-1-1-|
|------------------------------------------------------------------------------5/21--21---||-5/15--15---5/16--16---5/17--17---5/18--18---5/19--19---5/20--20---5/21--21---5/21--21---||-5/15--15---5/16--16---5/17--17---5/18--18---5/19--19---5/20--20---5/21--21---5/21--21---||-5/15--15---5/16--16---5/17--17---5/18--18---5/19--19---5/20--20---5/21--21---5/21--21---||-5/15--15---5/16--16---5/17--17---5/18--18---5/19--19---5/20--20---5/21--21--------------||-----------------------------------------------------------------------------------------|
|---------------------------------------------------------------||-21=\=\=\=\=\=\=\=\=\=\=\=\=\=\=\=\=\=\=\=\=\=\=\=\=\=\=\=\=\=-||-21=\=\=\=\=\=\=\=\=\=\=\=\=\=\=\=\=\=\=\=\=\=\=\=\=\=\=\=\=\=-||-21=\=\=\=\=\=\=\=\=\=\=\=\=\=\=\=\=\=\=\=\=\=\=\=\=\=\=\=\=\=-||-21=\=\=\=\=\=\=\=\=\=\=\=\=\=\=\=\=\=\=\=\=\=\=\=\=\=\=\=\=\=-||---------------------------------------------------------------|
|-------------------------------------------------------------||-------------------------------------------------------------||-------------------------------------------------------------||-------------------------------------------------------------||-------------------------------------------------------------||-0--0-0-0-0-1--4--4-4-4-4-5--7--7-7-7-7-8--8-11-11-11-8--8-8-|
|-------------------------------------------------------||-------------------------------------------------------||-------------------------------------------------------||-------------------------------------------------------||-------------------------------------------------------||-7--7-7-7-7-7--7-7-7-7-7-7-7-7-19=\=\=\=\=\=\=\=\=\=\=-|
|-------------------------------------------------------------||-------------------------------------------------------------||-------------------------------------------------------------||-------------------------------------------------------------||-------------------------------------------------------------||-0--0-0-0-0-1--4--4-4-4-4-5--7--7-7-7-7-8--8-11-11-11-8--8-8-|
|-------------------------------16=\=\=\=\=\=\=\=\=\=-||-------------------------------16=\=\=\=\=\=\=\=\=\=-||-----------------------------------------------------||-----------------------------------------------------||-----------------------------------------------------||-7--7-7-7-7-7--7-7-7-7-7-7-7-7-----------------------|
|-5-5-7-7-7-7-8-8-8-8-8-8-7-7-8-7-7-7-7-5-5-5-5-5-7-5-5-5-5-7-5-4-4-0-0-||-----------------------------------------------------------------------||-----------------------------------------------------------------------||-----------------------------------------------------------------------||-----------------------------------------------------------------------||-----------------------------------------------------------------------|
|-4-4-4-4-4-4-4-4-4-4-4-4-4-4-0-0-4-4-5-5-7-7-5-5-4-4-4-4-5-5-5-5-||-----------------------------------------------------------------||-----------------------------------------------------------------||-----------------------------------------------------------------||-----------------------------------------------------------------||-----------------------------------------------------------------|
|-7--7-7-7-5-7-7-5--5-5-4--4-4-4--4-5-4--4-5-4--4-4-1--1-1-||----------------------------------------------------------||----------------------------------------------------------||----------------------------------------------------------||----------------------------------------------------------||----------------------------------------------------------|
|-0---0--w-w-w-----12--12--12--||-----0--w-w-w-----------------||-----x------------------------||-----2--w-w-w-----------------||-----2--w-w-w-----------------||-----0--w-w-w-----------------|
|-12-0-0-0-13-0-0-0-15-0-0-0-13-0-0-0-12-0-0-0-13-0-0-0-15-0-0-0-13-0-0-0-||-------------------------------------------------------------------------||-------------------------------------------------------------------------||-------------------------------------------------------------------------||-------------------------------------------------------------------------||-------------------------------------------------------------------------|
|-12-0-0-0-0-0-0-0-11-0-0-0-0-0-0-0-10-0-0-0-0-0-0-0-9-0-0-0-0-0-0-0-||--------------------------------------------------------------------||--------------------------------------------------------------------||--------------------------------------------------------------------||--------------------------------------------------------------------||--------------------------------------------------------------------|
|-8-0-0-0-0-0-0-0-7-0-0-0-0-0-0-0-6-0-0-0-0-0-0-0-5-0-0-0-0-0-0-0-||-----------------------------------------------------------------||-----------------------------------------------------------------||-----------------------------------------------------------------||-----------------------------------------------------------------||-----------------------------------------------------------------|
|-4-0-0-0-0-0-0-0-3-0-0-0-0-0-0-0-2-0-0-0-0-0-0-0-1-1-1-1-1-1-1-1-||-------------------------------------------------1-1-1-1-1-1-1-1-||-----------------------------------------------------------------||-----------------------------------------------------------------||-----------------------------------------------------------------||-----------------------------------------------------------------|
|-0------0-------------------0---||-0------0-------------------0---||--------x---improvisation---x---||--------2-------------------2---||--------2-------------------2---||-----19\0-------------------0---|
Please rate this tab:
x1.0