The Tallest Man On Earth - Like The Wheel tab version 1

A couple notes: "p" means pull-off, "h" means hammer-on, and "s" means slide.
"||" indicates repeat the enclosed measures once.
Also, this is not exact, but I believe it to be very, very close, and
 no one could tell the difference unless listening to this tab and the real song side by side.

Tuning: DADF#AD, Capo 4

INTRO


----------------|----------0-----|------0-------0-| X2----0-------0---|----------------|0-------0-------|
p------------------------2--0----|----------0-------------------0-|------0-------0-------3---------|----0-------0-------0-----------|----------------4-------4-------|0-------0-----------------------|
----------------0---------------|----------0---------------0-----|------0-------0-------0-------0-|----0-------0-------0-------0---|2-------2-------2-------2-------|--------------------------------|
s p------------------2-----2-0---0-|----------------------------4---|------3---3---1-------1---------|----0-------0-------0-----------|----------------0-------0-------|2-5-----5-----------------------|
p------------------------4-0---0-|----------0---------------------|------0-------0-------0---------|----0-------0-------0-------0---|--------------------------------|0-------0-------0-------0-------|
----------------|----------0-----|------0-------0-| x2----0-------0---|----------------|0-------0-------|
VERSE
||--------------------------------|||----------0---------------0-----|||------0-------0-------3-------3-|||----0-------0-------0-------0---|||----------------4-------4-------|||0-------0-----------------------|
----------------0---------------|----------0---------------0-----|------0-------0-------0-------0-|----0-------0-------0-------0---|2-------2-------2-------2-------|--------------------------------|
s----------------------0---------|------------------------------0-|------3---3---1---1-------1-----|----0-------0-------0-------0---|----------------0-------0-------|2-5-----5-----------------------|
h--------------0-----------------||--------------------------0-----||------0---0-3---------3-------3-||----0---------------0-------0---||--------------------------------||0-------0-------0-------0-------||
CHORUS
||------------------------------0-|||----------0---------------0-----|||------3-------3-------3---------|||----0-------0-------2-------2---|||----------------0-------0-------|||5-------5-----------------------|
--------------------------------|------0-------------------0-----|--3-----------3-------0-------0-|----2-------2-------0-------0---|0-------0-----------------------|----------------0-------0-------|
--------------0-----------------||----------0-----------0---------||------3-----------3-----------3-||----0-------0-------0-------0---||--------------------------------||5-------5-------5-------5-------||
--------------------------------|----------0---------------0-----|------0-------0-------0-------0-|----2-------2-------7-------7---|2---------------7---------------|2-------2-------7-------7-------|
OUTRO
p------------------------4-0---0-|----------0---------------------|------0-------0-------0---------|----0-------0-------0-------0---|--------------------------------|0-------0-------0-------0-------|
Song Structure: Intro x1 Verse x1 Chorus x1 Intro x1 (sans first measure) Verse x1 Chorus x1 Intro x1 (sans first measure), (Extend by playing last 2 measures of verse 4 times) Verse x1 Chorus x1 Outro x4 Lyrics: Oh I wish I was the sparrow in your kid's eye Like a fly above is summer all day long On an island in the heart he has to carry Past the many you have let into your song And I said oh my lord why am i not strong Like the wheel that keeps travelers traveling on Like the wheel that will take you home And in the forest someone is whispering to a tree now This is all I am so please don't follow me And it's your brother in the shaft that I'm swinging Please let the kindness of forgetting set me free And he said oh my lord why am I not strong Like the wheel that keeps travelers traveling on Like the wheel that will take you home And on this Sunday someone's sititng down to wonder Where the hell among these mountains will I be? There's a cloud behind the cloud to which I'm yelling I could hear you sneak around so easily And I said oh my lord why am I not strong Like the branch that keeps hangman hanging on Like the branch that will take me home
Tap to rate this tab
 
# A B C D E F G H I J K L M N O P Q R S T U V W X Y Z