Uragiri No Yuuyake tab with lyrics by Theatre Brook for guitar @ Guitaretab

Theatre Brook – Uragiri No Yuuyake tab

-------------------------------------------------------------------------------
	                       URAGIRI NO YUUYAKE - Theatre Brook
                                  http://www.theatrebrook.com/  
-------------------------------------------------------------------------------
Tabbed by:jaymeza
Email:jaymeza@live.com

Tuning:E standard

I was unable to find a tab for this song anywhere so I decided to make my own
the solo is not 100% accurate but it should give a decent player an idea of 
where to look.
hope this helps.

Intro - play this twice w/o distortion G A|---------------------------||---------------------------||---------------------------||---(7)7/9------------------||---(5)5/7---------(5)5/7---||------------------(3)3/5---|
now w/distortion a e C D|---------------------------------------------2-----||---------1-----------0-----------1--------------3--||------------2-----------0-----------0-----2--------||------2-----------2-----------2--------0-----------||---0-----------2-----------3-----------------------||---------------------------------------------------|
e F# G b|---------------------------------------------------||---------0-----------0-----------0-----------3-----||------------0-----------0-----------0-----------4--||------2-----------0-----------0-----------4--------||---2-----------------------------------2-----------||---------------2-----------3-----------------------|
a e C D|---------------------------------------------2-----||---------1-----------0-----------1--------------3--||------------2-----------0-----------0-----2--------||------2-----------2-----------2--------0-----------||---0-----------2-----------3-----------------------||---------------------------------------------------|
|---------------------------------||---4--4--4--4--4--4--4--4--4--4--||---4--4--4--4--4--4--4--4--4--4--||---4--4--4--4--4--4--4--4--4--4--||---2--2--2--2--2--2--2--2--2--2--||---------------------------------|
chorus
|---7--7--7--7--7--7--7--7--7--7--7--7--7--7--7--7--7--7--7--7--7--7--7---||---6--7--7--6--6--6--7--6--7--6--7--6--6--7--7--6--6--6--7--6--7--6--7---||---6--6--6--6--6--6--6--6--6--6--6--6--6--6--6--6--6--6--6--6--6--6--6---||---7--7--7--7--7--7--7--7--7--7--7--7--7--7--7--7--7--7--7--7--7--7--7---||---6--6--6--6--6--6--6--6--6--6--6--6--6--6--6--6--6--6--6--6--6--6--6---||---6--6--6--6--6--6--6--6--6--6--6--6--6--6--6--6--6--6--6--6--6--6--6---|
|-------------------------------------------------------------------------||---3--3--3--3--3--3---1--1--1--1--1--1-----------------------------------||---4--4--4--4--4--4---2--2--2--2--2--2-----------------------------------||---5--5--5--5--5--5---2--2--2--2--2--2----4--4--4--4--4--4--4--4--4--4---||---5--5--5--5--5--5---0--0--0--0--0--0----2--2--2--2--2--2--2--2--2--2---||-------------------------------------------------------------------------|
play this 2X|-------------------------------------------------------||-------------------------------------------------------||-------------------------------------------------------||---9--9--9--9--11-11-11-11--12--12--12--12--4--4--4--4-||---7--7--7--7--9--9--9--9---10--10--10--10--2--2--2--2-||-------------------------------------------------------|
|-------------------------------------------------------||-------------------------------------------------------||-------------------------------------------------------||---5--5--5--5--7--7--7--7--9--9--9--9--11-11-11-11-----||---3--3--3--3--5--5--5--5--7--7--7--7--9--9--9--9------||-------------------------------------------------------|
repeat everything so far and then...
|----------------------------------------------------||----------------------------------------------------||---5--5--5--5--5--5--5--5---------------------------||---5--5--5--5--5--5--5--5--5--5--5--5--5--5--5--5---||---3--3--3--3--3--3--3--3--5--5--5--5--5--5--5--5---||---------------------------3--3--3--3--3--3--3--3---|
|----------------------------------------------------||----------------------------------------------------||---3--3--3--3--3--3--3--3---------------------------||---3--3--3--3--3--3--3--3--3--3--3--3--3--3--3--3---||---1--1--1--1--1--1--1--1--3--3--3--3--3--3--3--3---||---------------------------1--1--1--1--1--1--1--1---|
|----------------------------------------------------||----------------------------------------------------||---5--5--5--5--5--5--5--5---------------------------||---5--5--5--5--5--5--5--5--5--5--5--5--5--5--5--5---||---3--3--3--3--3--3--3--3--5--5--5--5--5--5--5--5---||---------------------------3--3--3--3--3--3--3--3---|
|----------------------------------------------------||----------------------------------------------------||---4--4--4--4--4--4--4--4--4--4---------------------||---4--4--4--4--4--4--4--4--4--4---------------------||---2--2--2--2--2--2--2--2--2--2---------------------||----------------------------------------------------|
Solo
|----------------------------------------------------------||---2~~(0)-2~~(0)-2~~-0-2-3-4-7-7-4-4-2-2--2~~-4-2-0-------||----------------------------------------------------------||----------------------------------------------------------||----------------------------------------------------------||----------------------------------------------------3(3)--|
-------------------------------12-----12-12----12-12----------12----12--|--------------10^-10--10-12-12-12-----12-12----12-12-------10----10-----|---7--9-9-9^9--9^--9---------------14~----- 14~------14~-9--------------|------------------------------------------------------------------------|------------------------------------------------------------------------|------------------------------------------------------------------------|
|---18^18^-18-16p18p15----15-16-16/18--18^-18^---||----------------------16------------------------||------------------------------------------------||------------------------------------------------||------------------------------------------------||------------------------------------------------|
|---16h18h16h18h16h18--16-14h16h14-------------------||----------------------------------16-14-12----12----||-------------------------------------------13----11-||----------------------------------------------------||----------------------------------------------------||----------------------------------------------------|
|------12-12--------------------------------12-12-------||------12-12-10h12h10h12h10-----------------12-12-------||---14----------------------12~----12-14-14-------14~---||-------------------------------14----------------------||-------------------------------------------------------||-------------------------------------------------------|
|----------------------------------------------||----------------------------------------------||------11---11---11----11////------------------||----9----9----9----9---9////------------------||----------------------------------------------||----------------------------------------------|
repeat chorus END ************************************ | / slide up | \ slide down | h hammer-on | p pull-off | ~ vibrato | + harmonic | x Mute note | b Bend | pb Pre-bend | br Bend release | pbr Pre-bend release | brb Bend release bend ************************************
Please rate this tab:
x1.0