Thin Lizzy - Angel Of Death tab

Angel Of Death – Thin Lizzy

Under no circumstances is for my work to be reproduced onto different sites.This is to 
used solely for tribute bands, and educational purposes only.

This was tabbed specifically for my friend Jamie, but hope you others enjoy :)


|------------------||------------------||--2--4--5----5--2-||--2--4--5----5--2-||--0--2--3----3--0-||------------------|
|-----------------------------||-----------------------------||--9--7----7--5--4----5--4--2-||--9--7----7--5--4----5--4--2-||--7--5----5--3--2----3--2--0-||-----------------------------|
X2
|--------------||--------------||--------------||--------------||----------3---||--3--3--5---3-| X1
PM|---------------------------------|--------------------||---------------------------------|--------------------||---------------------------------|--------------------||--7--7--7----7--7--7----7--7--7--|--------------------||--7--7--7----7--7--7----7--7--7--|-------------3------||--5--5--5----5--5--5----5--5--5--|--3--3--3--5---5----| X 7
PM|---------------------------------|---------------------||---------------------------------|---------------------||---------------------------------|--9--7----7--5--4----||--7--7--7----7--7--7----7--7--7--|--9--7----7--5--4--5-||--7--7--7----7--7--7----7--7--7--|--7--5----5--3--2--5-||--5--5--5----5--5--5----5--5--5--|-------------------3-| X1
X2
|------------------||------------------||--2--4--5----5--2-||--2--4--5----5--2-||--0--2--3----3--0-||------------------|
|-----------------------------||-----------------------------||--9--7----7--5--4----5--4--2-||--9--7----7--5--4----5--4--2-||--7--5----5--3--2----3--2--0-||-----------------------------|
X2
|--------------||--------------||--------------||--------------||----------3---||--3--3--5---3-| X1
SOLO
Chords overs solo PM|---------------------------------|------------------||---------------------------------|------------------||---------------------------------|------------------||--7--7--7----7--7--7----7--7--7--|------------------||--7--7--7----7--7--7----7--7--7--|-------------3----||--5--5--5----5--5--5----5--5--5--|--3--3--3--5---5--| X 7
PM|---------------------------------|---------------------|-----------||---------------------------------|---------------------|-----------||---------------------------------|--9--7----7--5--4----|-----------||--7--7--7----7--7--7----7--7--7--|--9--7----7--5--4--5-|-----------||--7--7--7----7--7--7----7--7--7--|--7--5----5--3--2--5-|-------3---||--5--5--5----5--5--5----5--5--5--|-------------------3-|--3--5---3-| X1
________________________________________ KEY LUDE -no guitar ________________________________________ 'An Angel of Death' Slide from bridge on E and A string to the 6th fret. _________________________________________
|--------------||--------------||--------------||--------------||----------3---||--3--3--5---3-| X8
|---------------------|-----------||---------------------|-----------||--9--7----7--5--4----|-----------||--9--7----7--5--4--5-|-----------||--7--5----5--3--2--5-|-------3---||-------------------3-|--3--5---3-|
|----------------------------------------------------------------------------------||----------------------------------------------------------------------------------||----------------------------------------------------------------------------------||--7----7--7--7----7--7--7----7--7--7----7--7--7----7--7--7----7--7--7----7--7--7--||--7----7--7--7----7--7--7----7--7--7----7--7--7----7--7--7----7--7--7----7--7--7--||--5----5--5--5----5--5--5----5--5--5----5--5--5----5--5--5----5--5--5----5--5--5--|
|---------------------||---------------------||--9--7----7--5--4----||--9--7----7--5--4--5-||--7--5----5--3--2--5-||-------------------3-|
|----------------------------------------------------------------------------------||----------------------------------------------------------------------------------||----------------------------------------------------------------------------------||--7----7--7--7----7--7--7----7--7--7----7--7--7----7--7--7----7--7--7----7--7--7--||--7----7--7--7----7--7--7----7--7--7----7--7--7----7--7--7----7--7--7----7--7--7--||--5----5--5--5----5--5--5----5--5--5----5--5--5----5--5--5----5--5--5----5--5--5--|
|-------------------------------||------------S------------------||--9--7------M-------7--5--4----||--9--7------U-------7--5--4--5-||--7--5------R-------5--3--2--5-||------------D----------------3-|
|--------------||--------------||--------------||--------------||----------3---||--3--3--5---3-|
Tap to rate this tab
 
# A B C D E F G H I J K L M N O P Q R S T U V W X Y Z