Thorogood George - Get A Haircut tab

open G tuning (low-high: D G D G B D)

Key:
/# Slide Up into (#)
\# Slide Down into (#)
\ Slide down all the way
(#) Ghost Note

|---------12-----------|--------12------------------||---10/12----12--------|-11/12-----12---------------||---------------12-----|--------------12-(12)-------||----------------------|----------------------------||----------------------|----------------------------||----------------------|----------------------------|
|-----------12-----------|--------12------------------||-----11/12----12--------|-11/12-----12---------------||-----------------12-----|--------------12-(12)-------||------------------------|----------------------------||------------------------|----------------------------||------------------------|----------------------------|
|---------5-----------|-----5-----------------||-----4/5----5--------|-4/5---5---------------||---------------5-----|---------5--5----------||---------------------|-----------------------||---------------------|-----------------------||---------------------|-----------------------|
|-------7---------|---7----------------||---6/7---7-------|-7---7--------------||-----------7-----|-------7--7--7\-----||-----------------|-------------7\-----||-----------------|--------------------||-----------------|--------------------|
|-----------------------|---------------------------||-----------------------|---------------------------||---10-10-10-10-10/12-0-|-10--10-10-10---10/12------||---10-10-10-10-10/12-0-|-10--10-10-10---10/12------||-----------------------|---------------------------||-----------------------|---------------------------|
|-------------------------|---------------------------||-------------------------|---------------------------||-----10-10-10-10-10/12-0-|-10--10-10-10---10/12------||-----10-10-10-10-10/12-0-|-10--10-10-10---10/12------||-------------------------|---------------------------||-------------------------|---------------------------|
|----------------------------|----------------------------||----------------17----------|----17----------------------||----------17--------17---17-|-17----17-------------------||-----0-13/17-17----------17-|----------17-(17)-17\-----0-||-12/14----------------------|------------------17\-----0-||----------------------------|----------------------------|
|-----------------------|---------0-10/17-----------||-------------------7-7-|-(7)-------10/17--15/16\---||-------------------7---|---------0-----------------||-6/7-6/7---6/7-6/7-----|---------------------------||-----------------------|---------------------------||-----------------------|---------------------------|
|-----------------------|---------------------------||-----------------------|---------------------------||---10-10-10-10-10/12-0-|-10--10-10-10---10/12------||---10-10-10-10-10/12-0-|-10--10-10-10---10/12------||-----------------------|---------------------------||-----------------------|---------------------------|
|-------------------------|---------------------------||-------------------------|---------------------------||-----10-10-10-10-10/12-0-|-10--10-10-10-(10)/12------||-----10-10-10-10-10/12-0-|-10--10-10-10-(10)/12------||-------------------------|---------------------------||-------------------------|---------------------------|
|--------------------------|---------------------------||--------------17----------|----17---------------------||-----12/17--------17---17-|-17------17-(17)-17\-------||-----12/17-17-------------|-17------17-(17)-17\-----0-||--------------------------|-----------------17\-----0-||--------------------------|---------------------------|
|-----------------|---------------------||---------7-----7-|-(7)-------(7)-7\----||-6s7-7-----7-----|---------------7\--0-||-6s7-7-----7-----|---------------7\--0-||-6s7-7-----------|-------------------0-||-----------------|---------------------|
|-------------------------------------------|------------------------||-------------------------------------------|--11/12-11/12-----------||-(0)-11/12-11/12-11/12-11/12-11/12-11/12---|--11/12-11/12-12\-----2\||-(0)-11/12-11/12-11/12-11/12-11/12-11/12---|--------------12\-----2\||-(0)---------------------------------------|------------------------||-------------------------------------------|------------------------|
|-------------------------------------------|------------------------||-------------------------------------------|--11/12-11/12-----------||-12--11/12-11/12-11/12-11/12-11/12-11/12-0-|--11/12-11/12-12\-------||-12--11/12-11/12-11/12-11/12-11/12-11/12-0-|--------------12\-------||-------------------------------------------|------------------------||-------------------------------------------|------------------------|
|-------------------------------|-----------------------||-------------------------------|-4/5-4/5---------------||---0-4/5-4/5-4/5--4/5--4/5---0-|-4/5-4/5--5----(5)/6\--||---0-4/5-4/5-4/5--4/5--4/5---0-|----------5----(5)/6\--||-----------------------------0-|-----------------------||-------------------------------|-----------------------|
|-----------------------|-------------------------||-----------------------|-------------------------||-7-6-6/7-6/7-6/7---6/7-|-6/7-6/7--------6/7/5/10/||-7-6-6/7-6/7-6/7---6/7-|-6/7-6/7--------6/7/5/10/||-----------------------|-------------------------||-----------------------|-------------------------|
|----------12-----------/21-|--17/12-----------------||-------------12----(12)/21-|--17/12-10/12-----------||-12-10/12------------------|--------10/12---12\2/14-||-12-10/12------------------|--------10/12---12\2/14-||---------------------------|------------------------||---------------------------|------------------------|
|------------------------|-21\--------------------||--------------11/12\9---|-----12-10/12-12\-------||-----10/12-12-11/12\9---|-----12-10/12-12\-------||-----10/12-12-11/12\9---|--------10/12-12\-------||------------------------|------------------------||------------------------|------------------------|
|--------------------------------|---------------------------------||------/17-17---17--17-17-(17)---|-17-17-17-(17)-17-(17)-17-17-----||---14/-17-17---17--17-17-(17)---|-17-17-17-(17)-17-(17)-17-17-----||---14/-17-17---17--17-17-(17)---|-17-17-17-(17)-17-(17)-17-17-----||---14---------------------------|---------------------------------||--------------------------------|---------------------------------|
|--------------------------|-22\19\15\12\10\7------||--------------------------|-------15\12\10\7-7----||-17/19-19-19-(19)-19---19-|-------------------7-0-||-17/19-19-19-(19)-19---19-|---------------------0-||--------------------------|-----------------------||--------------------------|-----------------------|
|-------------------------------|--------------------------------||-------------------------------|-----------------12-(12)\-------||-10/12-11/12---11/12-11/12\9-0-|-11/12--12-11/12-12-(12)\-----0-||-10/12-11/12---11/12-11/12\9-0-|-11/12--12-11/12-12-(12)\-----0-||-------------------------------|--------------------------------||-------------------------------|--------------------------------|
|-----------------------------|-----------------------------||-----------------------------|--------11/12----------------||--0--11---11-(11)-11/12\---0-|-11/12--11/12-12-12\---------||--0--11---11-(11)-11/12\---0-|-11/12--11/12----12\---------||--0--------------------------|-----------------------------||-----------------------------|-----------------------------|
|---------------------|-----------------------------||---------------------|-----------------------------||---0-4/5----5----5---|-5---5---5----5----5-----5---||---0-4/5----5----5---|-5---5---5----5----5-----5---||---0-----------------|-----------------------------||---------------------|-----------------------------|
|---------------------|-------------------||---------------------|-7-7---7-(7)-7\----||-5/6/7-7-(7)-7-7-----|-7-7---7-(7)-7\--0-||-5/6/7-7-(7)-7-7-(7)-|-7-7---7-(7)-7\--0-||---------------------|-------------------||---------------------|-------------------|
Tap to rate this tab
 
# A B C D E F G H I J K L M N O P Q R S T U V W X Y Z