Dracula tab with lyrics by Tierra Santa - Easy chords and tabs for guitar

Tierra Santa – Dracula tab

IntroE||------|----------------------------------|---------------------------|B||------|----------------------------------|---------------------------|G||------|----------------------------------|---------------------------|D||------|--------------------7-------------|------------5--7-----------|A||------|--8-7-8-10-8-7------5--5-5-5--5-5-|--5--5-5-5--3--5--5-5-5----|E||------|---------------10-8---------------|---------------------------|
----------------------------------|---------------------------|----------------------------------|---------------------------|----------------------------------|---------------------------|--------------------7-------------|------------5--7-----------|--8-7-8-10-8-7------5--5-5-5--5-5-|--5--5-5-5--3--5--5-5-5----|---------------10-8---------------|---------------------------|
----------------------------------|---------------------------|----------------------------------|---------------------------|----------------------------------|---------------------------|----------------------------------|---------------5-----------|--8-7-8-10-8-7------8-------------|------------8--3--3-3-3----|---------------10-8-6--6-6-6--6-6-|--6--6-6-6--6--------------|
----------------------------------|-------------------------|-----------|----------------------------------|-------------------------|-----------|----------------------------------|-------------------------|-----------|--------------------7-------------|----------------5--------|-----------|--8-7-8-10-8-7------5--5-5-5--5-5-|--5--5-5-5--5-5-3--------|--8--------|---------------10-8---------------|-------------------------|--6--------|
Verso------------------------------|-----------------------------|------------------------------|-----------------------------|------------------------------|-----------------------------|--7---------------------------|--------------------------5--|--5--5-5-5--5-5-5--5-5-5--5-5-|--5--5-5-5--5-5-5--5-5-5--3--|------------------------------|-----------------------------|
------------------------------|------------------------------|------------------------------|------------------------------|------------------------------|------------------------------|--7---------------------------|------------------------------|--5--5-5-5--5-5-5--5-5-5--5-5-|--5--5-5-5--5-5-5--5-5-5--5-5-|------------------------------|------------------------------|
------------------------------|------------------------------|------------------------------|------------------------------|------------------------------|------------------------------|--3---------------------------|--5---------------------------|--1--1-1-1--1-1-1--1-1-1--1-1-|--3--3-3-3--3-3-3--3-3-3--3-3-|------------------------------|------------------------------|
-----------------------------|--------------------------------|-----------------------------|--------------------------------|-----------------------------|--------------------------------|--7-----------------------5--|--7-------------------5---------|--5--5-5-5--5-5-5--5-5-5--3--|--5--5-5-5--5-5-8-7-8---8-7-5---|-----------------------------|------------------------------8-|
Verso 2------------------------------|-----------------------------|------------------------------|-----------------------------|------------------------------|-----------------------------|--7---------------------------|--------------------------5--|--5--5-5-5--5-5-5--5-5-5--5-5-|--5--5-5-5--5-5-5--5-5-5--3--|------------------------------|-----------------------------|
------------------------------|------------------------------|------------------------------|------------------------------|------------------------------|------------------------------|--7---------------------------|------------------------------|--5--5-5-5--5-5-5--5-5-5--5-5-|--5--5-5-5--5-5-5--5-5-5--5-5-|------------------------------|------------------------------|
------------------------------|------------------------------|------------------------------|------------------------------|------------------------------|------------------------------|--3---------------------------|--5---------------------------|--1--1-1-1--1-1-1--1-1-1--1-1-|--3--3-3-3--3-3-3--3-3-3--3-3-|------------------------------|------------------------------|
Pre-coro-----------------------------|--------------------------------|-----------------------------|--------------------------------|-----------------------------|--------------------------------|--7-----------------------5--|--7-------------------5---------|--5--5-5-5--5-5-5--5-5-5--3--|--5--5-5-5--5-5-8-7-8---8-7-5---|-----------------------------|------------------------------8-|
------------------------------|------------------------------|------------------------------|------------------------------|------------------------------|------------------------------|------------------------------|------------------------------|--8---------------------------|------------------------------|--6--6-6-6--6-6-6--6-6-6--6-6-|--6--6-6-6--6-6-6--6-6-6--6-6-|
------------------------------|------------------------------|------------------------------|------------------------------|------------------------------|------------------------------|--5---------------------------|------------------------------|--3--3-3-3--3-3-3--3-3-3--3-3-|--3--3-3-3--3-3-3--3-3-3--3-3-|------------------------------|------------------------------|
------------------------------|------------------------------|------------------------------|------------------------------|------------------------------|------------------------------|------------------------------|------------------------------|--8---------------------------|------------------------------|--6--6-6-6--6-6-6--6-6-6--6-6-|--6--6-6-6--6-6-6--6-6-6--6-6-|
------------------------------|------------------------------|------------------------------|------------------------------|------------------------------|------------------------------|--5---------------------------|------------------------------|--3--3-3-3--3-3-3--3-3-3--3-3-|--3--3-3-3--3-3-3--3-3-3--3-3-|------------------------------|------------------------------|
Coro-------------------|-------------------|------------------------------|-------------------|-------------------|------------------------------|-------------------|-------------------|------------------------------|--7----------------|--3----------------|--5---------------------------|--5----------------|--1----------------|--3--3-3-3--3-3-3--3-3-3--3-3-|-------------------|-------------------|------------------------------|
------------------------------|-------------------|-------------------|------------------------------|-------------------|-------------------|------------------------------|-------------------|-------------------|------------------------------|--7----------------|--3----------------|--3--3-3-3--3-3-3--3-3-3--3-3-|--5----------------|--1----------------|------------------------------|-------------------|-------------------|
------------------------------|------------------------------|------------------------------|------------------------------|------------------------------|------------------------------|--5---------------------------|------------------------------|--3--3-3-3--3-3-3--3-3-3--3-3-|--3--3-3-3--3-3-3--3-3-3--3-3-|------------------------------|------------------------------|
------------------------------|------------------------------|------------------------------|------------------------------|------------------------------|------------------------------|------------------------------|------------------------------|--8---------------------------|------------------------------|--6--6-6-6--6-6-6--6-6-6--6-6-|--6--6-6-6--6-6-6--6-6-6--6-6-|
------------------------------|------------------------------|------------------------------|------------------------------|------------------------------|------------------------------|--5---------------------------|------------------------------|--3--3-3-3--3-3-3--3-3-3--3-3-|--3--3-3-3--3-3-3--3-3-3--3-3-|------------------------------|------------------------------|
------------------------------|------------------------------|------------------------------|------------------------------|------------------------------|------------------------------|------------------------------|------------------------------|--8---------------------------|------------------------------|--6--6-6-6--6-6-6--6-6-6--6-6-|--6--6-6-6--6-6-6--6-6-6--6-6-|
------------------------------|--------------------------|------------------------------|--------------------------|------------------------------|--------------------------|------------------------------|--------------------------|--7---------------------------|----------------8----7----|--5--5-5-5--5-5-5--5-5-5--5-5-|--5--5-5-5--5-5-6----5----|
(Pre-solo)-----------------------------|------------------------------|-----------------------------|------------------------------|-----------------------------|------------------------------|--7-----------------------5--|--7---------------------------|--5--5-5-5--5-5-5--5-5-5--3--|--5--5-5-5--5-5-5--5-5-5--5-5-|-----------------------------|------------------------------|
------------------------------|-------------------|------------------------------|-------------------|------------------------------|-------------------|--3-------------5-------------|--7----------------|--1--1-1-1--1-1-3--3-3-3--3-3-|--5----------------|------------------------------|-------------------|
-----------------------------|------------------------------|-----------------------------|------------------------------|-----------------------------|------------------------------|--7-----------------------5--|--7---------------------------|--5--5-5-5--5-5-5--5-5-5--3--|--5--5-5-5--5-5-5--5-5-5--5-5-|-----------------------------|------------------------------|
(Solo)------------------------------|-------------------|------------------------------|-------------------|------------------------------|-------------------|--3-------------5-------------|--7----------------|--1--1-1-1--1-1-3--3-3-3--3-3-|--5----------------|------------------------------|-------------------|
------------------------------|------------------------------|------------------------------|------------------------------|------------------------------|------------------------------|------------------------------|------------------------------|------------------------------|------------------------------|--0--0-0-0--0-0-0--0-0-0--0-0-|--0--0-0-0--0-0-0--0-0-0--0-0-|
------------------------------|------------------------------|------------------------------|------------------------------|------------------------------|------------------------------|------------------------------|------------------------------|--3--3-3-3--3-3-5--5-5-5--5-5-|--7--7-7-7--7-7-7--7-7-7--7-7-|------------------------------|------------------------------|
------------------------------|------------------------------|------------------------------|------------------------------|------------------------------|------------------------------|------------------------------|------------------------------|------------------------------|------------------------------|--0--0-0-0--0-0-0--0-0-0--0-0-|--0--0-0-0--0-0-0--0-0-0--0-0-|
------------------------------|------------------------------|------------------------------|------------------------------|------------------------------|------------------------------|------------------------------|------------------------------|--3--3-3-3--3-3-5--5-5-5--5-5-|--7--7-7-7--7-7-7--7-7-7--7-7-|------------------------------|------------------------------|
------------------------------|------------------------------|------------------------------|------------------------------|------------------------------|------------------------------|------------------------------|------------------------------|------------------------------|------------------------------|--8--8-8-8--8-8-8--8-8-8--8-8-|--8--8-8-8--8-8-8--8-8-8--8-8-|
------------------------------|------------------------------|------------------------------|------------------------------|------------------------------|------------------------------|------------------------------|------------------------------|------------------------------|------------------------------|--4--4-4-4--4-4-6--6-6-6--6-6-|--8--8-8-8--8-8-8--8-8-8--8-8-|
------------------------------|------------------------------|------------------------------|------------------------------|------------------------------|------------------------------|------------------------------|------------------------------|------------------------------|------------------------------|--8--8-8-8--8-8-8--8-8-8--8-8-|--8--8-8-8--8-8-8--8-8-8--8-8-|
------------------------------|------------------------------|------------------------------|------------------------------|------------------------------|------------------------------|------------------------------|------------------------------|------------------------------|------------------------------|--4--4-4-4--4-4-6--6-6-6--6-6-|--8--8-8-8--8-8-8--8-8-8--8-8-|
Coro------------------------------|------------------------------|------------------------------|------------------------------|------------------------------|------------------------------|--7---------------------------|--3---------------------------|--5--5-5-5--5-5-5--5-5-5--5-5-|--1--1-1-1--1-1-1--1-1-1--1-1-|------------------------------|------------------------------|
------------------------------|------------------------------|------------------------------|------------------------------|------------------------------|------------------------------|--5---------------------------|------------------------------|--3--3-3-3--3-3-3--3-3-3--3-3-|--3--3-3-3--3-3-3--3-3-3--3-3-|------------------------------|------------------------------|
------------------------------|------------------------------|------------------------------|------------------------------|------------------------------|------------------------------|--7---------------------------|--3---------------------------|--5--5-5-5--5-5-5--5-5-5--5-5-|--1--1-1-1--1-1-1--1-1-1--1-1-|------------------------------|------------------------------|
------------------------------|------------------------------|------------------------------|------------------------------|------------------------------|------------------------------|--5---------------------------|------------------------------|--3--3-3-3--3-3-3--3-3-3--3-3-|--3--3-3-3--3-3-3--3-3-3--3-3-|------------------------------|------------------------------|
------------------------------|------------------------------|------------------------------|------------------------------|------------------------------|------------------------------|------------------------------|------------------------------|--8---------------------------|------------------------------|--6--6-6-6--6-6-6--6-6-6--6-6-|--6--6-6-6--6-6-6--6-6-6--6-6-|
------------------------------|------------------------------|------------------------------|------------------------------|------------------------------|------------------------------|--5---------------------------|------------------------------|--3--3-3-3--3-3-3--3-3-3--3-3-|--3--3-3-3--3-3-3--3-3-3--3-3-|------------------------------|------------------------------|
------------------------------|------------------------------|------------------------------|------------------------------|------------------------------|------------------------------|------------------------------|------------------------------|--8---------------------------|------------------------------|--6--6-6-6--6-6-6--6-6-6--6-6-|--6--6-6-6--6-6-6--6-6-6--6-6-|
Solo 2------------------------------|--------------------------|-------------------|------------------------------|--------------------------|-------------------|------------------------------|--------------------------|-------------------|------------------------------|--------------------------|-------------------|--7---------------------------|----------------8----7----|--8----------------|--5--5-5-5--5-5-5--5-5-5--5-5-|--5--5-5-5--5-5-6----5----|--6----------------|
--------------------|-------------------|--------------------|--------------------|-------------------|--------------------|--------------------|-------------------|--------------------|--------------------|-------------------|--------------------|----------8----7----|--8----------------|----------8----7----|----------6----5----|--6----------------|----------6----5----|
-------------------|--------------------|--------------------|-------------------|--------------------|--------------------|-------------------|--------------------|--------------------|-------------------|--------------------|--------------------|--8----------------|----------8----7----|--10----------------|--6----------------|----------6----5----|--8-----------------|
--------------------|------------------------------|--------------------------|--------------------|------------------------------|--------------------------|--------------------|------------------------------|--------------------------|--------------------|------------------------------|--------------------------|----------8----7----|--8---------------------------|----------------8----7----|----------6----5----|--6--6-6-6--6-6-6--6-6-6--6-6-|--6--6-6-6--6-6-6----5----|
------------------------------|--------------------------|------------------------------|--------------------------|------------------------------|--------------------------|------------------------------|--------------------------|--8---------------------------|----------------8----7----|--6--6-6-6--6-6-6--6-6-6--6-6-|--6--6-6-6--6-6-6----5----|
------------------------------|--------------------------|------------------------------|--------------------------|------------------------------|--------------------------|------------------------------|--------------------------|--8---------------------------|----------------8----7----|--6--6-6-6--6-6-6--6-6-6--6-6-|--6--6-6-6--6-6-6----5----|
Verso 3-------------------------------|--------------------------|------------------|-------------------------------|--------------------------|------------------|-------------------------------|--------------------------|------------------|-------------------------------|--------------------------|------------------|--10---------------------------|----------------8----7----|------------------|--8---8-8-8--8-8-8--8-8-8--8-8-|--8--8-8-8--8-8-6----5----|------------------|
------|------|------|-------------------|-------------------|------|------|------|-------------------|-------------------|------|------|------|-------------------|-------------------|------|------|------|--3----------------|--5----------------|------|------|------|--1----------------|--3----------------|------|------|------|-------------------|-------------------|
-----------------------------|--------------------|-----------------------------|--------------------|-----------------------------|--------------------|--7-----------------------5--|--------3--------2--|--5--5-5-5--5-5-5--5-5-5--3--|--------1--------0--|-----------------------------|--------------------|
Pre-Coro 2------------------------------|------------------------------|------------------------------|------------------------------|------------------------------|------------------------------|--3---------------------------|------------------------------|--1--1-1-1--1-1-1--1-1-1--1-1-|--1--1-1-1--1-1-1--1-1-1--1-1-|------------------------------|------------------------------|
------------------------------|------------------------------|------------------------------|------------------------------|------------------------------|------------------------------|--5---------------------------|------------------------------|--3--3-3-3--3-3-3--3-3-3--3-3-|--3--3-3-3--3-3-3--3-3-3--3-3-|------------------------------|------------------------------|
------------------------------|------------------------------|------------------------------|------------------------------|------------------------------|------------------------------|--3---------------------------|------------------------------|--1--1-1-1--1-1-1--1-1-1--1-1-|--1--1-1-1--1-1-1--1-1-1--1-1-|------------------------------|------------------------------|
------------------------------|------------------------------|------------------------------|------------------------------|------------------------------|------------------------------|--5---------------------------|------------------------------|--3--3-3-3--3-3-3--3-3-3--3-3-|--3--3-3-3--3-3-3--3-3-3--3-3-|------------------------------|------------------------------|
Coro 2------------------------------|------------------------------|------------------------------|------------------------------|------------------------------|------------------------------|--7---------------------------|--3---------------------------|--5--5-5-5--5-5-5--5-5-5--5-5-|--1--1-1-1--1-1-1--1-1-1--1-1-|------------------------------|------------------------------|
------------------------------|-----------------------------|------------------------------|-----------------------------|------------------------------|-----------------------------|--5---------------------------|--------------------------5--|--3--3-3-3--3-3-3--3-3-3--3-3-|--3--3-3-3--3-3-3--3-3-3--3--|------------------------------|-----------------------------|
------------------------------|------------------------------|------------------------------|------------------------------|------------------------------|------------------------------|--7---------------------------|--3---------------------------|--5--5-5-5--5-5-5--5-5-5--5-5-|--1--1-1-1--1-1-1--1-1-1--1-1-|------------------------------|------------------------------|
------------------------------|-----------------------------|------------------------------|-----------------------------|------------------------------|-----------------------------|--5---------------------------|--------------------------5--|--3--3-3-3--3-3-3--3-3-3--3-3-|--3--3-3-3--3-3-3--3-3-3--3--|------------------------------|-----------------------------|
------------------------------|------------------------------|------------------------------|------------------------------|------------------------------|------------------------------|--7---------------------------|--3---------------------------|--5--5-5-5--5-5-5--5-5-5--5-5-|--1--1-1-1--1-1-1--1-1-1--1-1-|------------------------------|------------------------------|
------------------------------|-----------------------------|------------------------------|-----------------------------|------------------------------|-----------------------------|--5---------------------------|--------------------------5--|--3--3-3-3--3-3-3--3-3-3--3-3-|--3--3-3-3--3-3-3--3-3-3--3--|------------------------------|-----------------------------|
------------------------------|------------------------------|------------------------------|------------------------------|------------------------------|------------------------------|--7---------------------------|--3---------------------------|--5--5-5-5--5-5-5--5-5-5--5-5-|--1--1-1-1--1-1-1--1-1-1--1-1-|------------------------------|------------------------------|
------------------------------|----------------------------------|------------------------------|----------------------------------|------------------------------|----------------------------------|--5---------------------------|----------------------------------|--3--3-3-3--3-3-3--3-3-3--3-3-|--3--3-3-3--3-3-8-7-8-10-8-7------|------------------------------|-----------------------------10-8-|
--------------------|------------------|------------------|------------------|--------------------|------------------|------------------|------------------|-----------7~-------|------------------|------------------|------------------|--7--------7--------|------------------|------------------|------------------|--5--------5--------|------------------|------------------|------------------|--------------------|------------------|------------------|------------------|
--------------------|----||--------------------|----||--------------------|----||------------2--7----|----||------------0--5----|----||--------------------|----||
Pre-Solo----------------------------------------|----------------------------------------|-----------9-10--12--10--9-10-9---------|--12-10-12----------------------12--10--|----------------------------------------|----------------------------------------|
----------------------------------------|--------------------------5-------|----------------------------------------|----------------5-6-5-6-8---8-6-5-|-----------9-10--12--10--9-10-9---------|--------5-7-5-7-------------------|--12-10-12----------------------12--10--|--8-7-8---------------------------|----------------------------------------|----------------------------------|----------------------------------------|----------------------------------|
Solo---------------------|------------------------|------------------------|---------------------|------------------------|--13------12------------|--7~-----------------|--12------11------------|------------------12----|---------------10----|------------------12----|------------------------|---------------------|------------------------|------------------------|---------------------|------------------------|------------------------|
--17r---17-15-14--------14----------|----14----------------------|-----------------17r-------17-15-17r|--------17r-15-17~----------|------------------------------------|-------------------------12h|------------------------------------|----------------------------|------------------------------------|----------------------------|------------------------------------|----------------------------|
------------------------------------|-----------------------------|------12----------------------------|------12---------------------|--14b-----14-12-12-14b-12-------12--|--14b-----14r-12-14------9---|--------------------------14~-------|-----------------------------|------------------------------------|-----------------------------|------------------------------------|-----------------------------|
----------------------------------------------|--------------------|----------------------------------------------|--------------------|--12--10--9--10--9------9---------------------|--------------------|--------------------12-----12--10--12--10--9--|--10r---------------|----------------------------------------------|--------------------|----------------------------------------------|--------------------|
--------------------|----------------------|------------------------|--------------------|-----------------6----|--8~----8h9-8--6-----6--|--5-----------------|--5----7----8---------|------------------8-----|---------------5----|----------------------|------------------------|--------------------|----------------------|------------------------|--------------------|----------------------|------------------------|
--------------------|--------------------|--8~----------------|--------------------|--------------------|--7------5----------|-----------------5/-|--------------------|--------------------|--------------------|--------------------|--------------------|
--------------------------------------|--------------------6--8--9--8--6-----|--7--5--7--8--7--8-----------------8--|--------------------------------------|--------------------------------------|--------------------------------------|
------------------------------------11-13-15--|--15~---------------|------11--13--11----------11--13-15-----------|--------------------|--13--------------13--12----------------------|--------------------|----------------------------------------------|--------------------|----------------------------------------------|--------------------|----------------------------------------------|--------------------|
Solo 2----------------------------|-----------------------------|----------------------------|-----------------------------|----------------------------|-----------------------------|----------------------------|----------------7------------|--------7--8--10------7--8--|--10------7--8-----10--8--7--|----10------------10--------|------10---------------------|
----------------------------|-----------------------------|----------------------------|-----------------------------|----------------------------|-----------------------------|----------------------------|----------------7------------|--------7--8--10------7--8--|--10------7--8-----10--8--7--|----10------------10--------|------10---------------------|
----------------------------|-----------------------------|----------------------------|-----------------------------|----------------------------|-----------------------------|----------------------------|----------------7------------|--------7--8--10------7--8--|--10------7--8-----10--8--7--|----10------------10--------|------10---------------------|
----------------------------|-----------------------------|----------------------------|-----------------------------|----------------------------|-----------------------------|----------------------------|----------------7------------|--------7--8--10------7--8--|--10------7--8-----10--8--7--|----10------------10--------|------10---------------------|
----------------------------------|-------------------------------|----------------------------------|-------------------------------|----------------------------------|-------------------------------|----------------------------------|------------------7------------|------------7--8--10--------7--8--|--10--------7--8-----10--8--7--|--10--10-10-----------10-10-------|------10-10--------------------|
----------------------------------|-------------------------------|----------------------------------|-------------------------------|----------------------------------|-------------------------------|----------------------------------|------------------7------------|------------7--8--10--------7--8--|--10--------7--8-----10--8--7--|--10--10-10-----------10-10-------|------10-10--------------------|
----------------------------------|-------------------------------|----------------------------------|-------------------------------|----------------------------------|-------------------------------|----------------------------------|------------------7------------|------------7--8--10--------7--8--|--10--------7--8-----10--8--7--|--10--10-10-----------10-10-------|------10-10--------------------|
----------------------------------|-------------------------------|----------------------------------|-------------------------------|----------------------------------|-------------------------------|----------------------------------|------------------7------------|------------7--8--10--------7--8--|--10--------7--8-----10--8--7~-|--10--10-10-----------10-10-------|------10-10--------------------|
Letra Cuenta un relato que en la noche apareció Un hombre que en vampira su alma convirtió En Transilvania nació Su nombre era Drácula Dicen que por sus venas hubo sangre azul Y que la luz invadía su morada Pero el engaño llegó y le separó de su amada Y renunció de su Dios Y el mal se hizo dueño de él En monstruo le convirtió Asesino y cruel Hay Un alma inmortal Que vaga en la oscuridad Hay Un alma inmortal Que busca tu sangre Aunque te escondas él te encontrará Y buscará entre tu mente Y tu alma suya será Hay Un alma inmortal Que vaga en la oscuridad Hay Un alma inmortal Que busca tu sangre Aunque te escondas él te encontrará Y buscará entre tu mente Y tu alma suya será Ahora el vampiro es perseguido por robar En esta noche el corazón de una mortal Para poder poseer Su alma y su vida Y en su castillo la luz De nuevo iluminará El fin de un hombre que hoy Ha encontrado su paz Hay Un alma inmortal Que vaga en la oscuridad Hay Un alma inmortal Que busca tu sangre Hay Un alma inmortal Que vaga en la oscuridad Hay Un alma inmortal Que busca tu sangre
Please rate this tab:
x1.0