Fall From Grace tab with lyrics by Times Of Grace - Easy chords and tabs for guitar

Times Of Grace – Fall From Grace tab

---------------------------------------------------------------------------------
			       FALL FROM GRACE - Times Of Grace
---------------------------------------------------------------------------------
Tabbed by: Pillow Guitar / FidgetyHand
Email: ghostbreaker@freenet.de

Tuning: Drop A



Intro (clean guitar):

#B|-----------------|-----------------|-----------------|-----------------| F|-3---------------|-5---------------|-5---------------|-6---------------| D|-2---------------|-3---------------|-2---------------|-2---------------| A|-----------------|-----------------|-----------------|-----------------| E|-----------------|-----------------|-----------------|-----------------| A|-----------------|-----------------|-----------------|-----------------|
|-----------------|-----------------|-----------------|-----------------||-6---------------|-5---------------|-5---------------|-3---------------||-3---------------|-3---------------|-2---------------|-2---------------||-----------------|-----------------|-----------------|-----------------||-----------------|-----------------|-----------------|-----------------||-----------------|-----------------|-----------------|-----------------|
Verse (clean guitar):
|---0-------0---0-|---0-------0---0-|---0-------0---0-|---0-------5---5-||-------6---------|-------6---------|-------6---------|-6-----6---------||-3---3-----------|-3---3-----------|-2---2-----------|-----3-----------|x4|-----------------|-----------------|-----------------|-----------------||-----------------|-----------------|-----------------|-----------------||-----------------|-----------------|-----------------|-----------------|
Prechorus (distortion guitar):
|-3---------------|-----------------||-----------------|-----------------||-----------------|-----------------||-----------------|-----------------||---0-0-0-0-0-0-0-|-0-0-0-0-0-0-0-0-||---0-0-0-0-0-0-0-|-0-0-0-0-0-0-0-0-| . . . . . . .
Chorus (distortion guitar):
|-----------------|-----------------|-----------------||-----------------|-----------------|-----------------||-----------------|-----------------|-----------------||-3-3-3-3-3-3-3-3-|-5-5-5-5-5-5-5-5-|-7-7-7-7-7-7-7-7-||-1-1-1-1-1-1-1-1-|-3-3-3-3-3-3-3-3-|-5-5-5-5-5-5-5-5-||-----------------|-----------------|-----------------|
|-------------------------||-------------------------||-------------------------||-10-10-10-10-10-10-10-10-||-8--8--8--8--8--8--8--8--||-------------------------|
|-----------------|-----------------|-----------------|-----------------||-----------------|-----------------|-----------------|-----------------||-----------------|-----------------|-----------------|-----------------||-3-3-3-3-3-3-3-3-|-5-5-5-5-5-5-5-5-|-7-7-7-7-7-7-7-7-|-7-7-7-7-7-7-7-7-||-1-1-1-1-1-1-1-1-|-3-3-3-3-3-3-3-3-|-5-5-5-5-5-5-5-5-|-5-5-5-5-5-5-5-5-||-----------------|-----------------|-----------------|-----------------|
|-----------------|-----------------|-----------------||-----------------|-----------------|-----------------||-----------------|-----------------|-----------------||-3-3-3-3-3-3-3-3-|-5-5-5-5-5-5-5-5-|-7-7-7-7-7-7-7-7-||-1-1-1-1-1-1-1-1-|-3-3-3-3-3-3-3-3-|-5-5-5-5-5-5-5-5-||-----------------|-----------------|-----------------|
|-------------------------||-------------------------||-------------------------||-10-10-10-10-10-10-10-10-||-8--8--8--8--8--8--8--8--||-------------------------|
|-----------------|-----------------|-----------------|-----------------||-----------------|-----------------|-----------------|-----------------||-----------------|-----------------|-----------------|-----------------||-3-3-3-3-3-3-3-3-|-5-5-5-5-5-5-5-5-|-0---------------|-----------------||-1-1-1-1-1-1-1-1-|-3-3-3-3-3-3-3-3-|-0---------------|---------0-10\---||-----------------|-----------------|-0---------------|---------0-10\---| .
Bridge (distortion guitar):
|-------------------------|--------------------------||-------------------------|--------------------------||-------------------------|--------------------------||-7-----5/-7-----7-----5/-|/7-----7-----9/10\9--5----||-5-----3/-5-----5-----3/-|/5-----5-----7/8-\7--3--0-||----0--------0-----0-----|----0-----0---------------| . . . . .
|-------------------------|--------------------------||-------------------------|--------------------------||-------------------------|----5-----5-----5---------||-3-----2h-3-----3-----2--|-5-----3-----2-----7~-----||-1--1--1-----1--1--1--1--|--------------------------||-------------------------|--------------------------| . . . . . . PH
|-------------------------|--------------------------||-------------------------|--------------------------||-------------------------|--------------------------||-7-----5/-7-----7-----5/-|/7-----7-----9/10\9--5----||-5-----3/-5-----5-----3/-|/5-----5-----7/8-\7--3--0-||----0--------0-----0-----|----0-----0---------------| . . . . .
|-------------------------|--------------------------||-------------------------|--------------------------||-------------------------|----5-----5-----5--5~-----||-3-----2h-3-----3-----2--|-5-----3-----2------------||-1--1--1-----1--1--1--1--|--------------------------||-------------------------|--------------------------| . . . . . . PH
|-----------------|-----------------|-----------------|-----------------||-----------------|-----------------|-----------------|-----------------||-----------------|-----------------|-----------------|-----------------||-----------------|-----------------|-3-3-3-3-3-3-3-3-|-5-5-5-5-5-5-5-5-||-0-0-0-0-0-0-0-0-|-0-0-0-0-0-0-0-0-|-1-1-1-1-1-1-1-1-|-3-3-3-3-3-3-3-3-||-0-0-0-0-0-0-0-0-|-0-0-0-0-0-0-0-0-|-----------------|-----------------| . . . . . . . . . . . . . . . . . . . . . . . . . . . . . . . .
|-----------------|-----------------|-----------------|------------------||-----------------|-----------------|-----------------|------------------||-----------------|-----------------|-----------------|------------------||-----------------|-----------------|-3-3-3-3-3-3-3-3-|-5-5-5-5-5-5------||-0-0-0-0-0-0-0-0-|-0-0-0-0-0-0-0-0-|-1-1-1-1-1-1-1-1-|-3-3-3-3-3-3-10\--||-0-0-0-0-0-0-0-0-|-0-0-0-0-0-0-0-0-|-----------------|-------------10\--| . . . . . . . . . . . . . . . . . . . . . . . .
Chorus (distortion guitar):
|-----------------|-----------------|-----------------||-----------------|-----------------|-----------------||-----------------|-----------------|-----------------||-3-3-3-3-3-3-3-3-|-5-5-5-5-5-5-5-5-|-7-7-7-7-7-7-7-7-||-1-1-1-1-1-1-1-1-|-3-3-3-3-3-3-3-3-|-5-5-5-5-5-5-5-5-||-----------------|-----------------|-----------------|
|-------------------------||-------------------------||-------------------------||-10-10-10-10-10-10-10-10-||-8--8--8--8--8--8--8--8--||-------------------------|
|-----------------|-----------------|-----------------|-----------------||-----------------|-----------------|-----------------|-----------------||-----------------|-----------------|-----------------|-----------------|X2|-3-3-3-3-3-3-3-3-|-5-5-5-5-5-5-5-5-|-7-7-7-7-7-7-7-7-|-7-7-7-7-7-7-7-7-||-1-1-1-1-1-1-1-1-|-3-3-3-3-3-3-3-3-|-5-5-5-5-5-5-5-5-|-5-5-5-5-5-5-5-5-||-----------------|-----------------|-----------------|-----------------|
Interlude (clean guitar):
|---0-------0---0-|---0-------0---0-|---0-------0---0-|---0-------5---5-||-------6---------|-------6---------|-------6---------|-6-----6---------||-3---3-----------|-3---3-----------|-2---2-----------|-----3-----------||-----------------|-----------------|-----------------|-----------------||-----------------|-----------------|-----------------|-----------------||-----------------|-----------------|-----------------|-----------------|
|---0-------0---0-|---0-------0---0-|---0-------0---0-|---0-------------||-------6---------|-------6---------|-------6---------|-6-----6---------||-3---3-----------|-3---3-----------|-2---2-----------|-----3-----------||-----------------|-----------------|-----------------|-----------------||-----------------|-----------------|-----------------|-----------\\\\\\||-----------------|-----------------|-----------------|-----------\\\\\\| slide down with pick
Bridge (distortion guitar):
|-----------------|-----------------|-----------------|-----------------||-----------------|-----------------|-----------------|-----------------||-------5---5---5-|-------5---5---5-|-------5---5---5-|-------5---5---5-||-------3---3---3-|-------2---2---2-|-------3---3---3-|-------3---3---3-||-1-1-1---1---1---|-3-3-3---3---3---|-5-5-5---5---5---|-----------------||-----------------|-----------------|-----------------|-3-3-3---3---3---| . . . . . . . . . . . . . . . . . . . .
|-----------------|-----------------|-----------------|-----------------||-----------------|-----------------|-----------------|-----------------||-------5---5---5-|-------5---5---5-|-----------------|-----------------||-------3---3---3-|-------2---2---2-|-0-0-0-0-0-0-0-0-|-0-0-0-0-0-------||-1-1-1---1---1---|-3-3-3---3---3---|-0-0-0-0-0-0-0-0-|-0-0-0-0-0-------||-----------------|-----------------|-0-0-0-0-0-0-0-0-|-0-0-0-0-0-------| . . . . . . . . . . .
Out- Chorus (distortion guitar):
|-13----13----13----13----|-18----18----18----18----||----17----17----17----17-|----17----17----17----17-||-------------------------|-------------------------||-------------------------|-------------------------||-------------------------|-------------------------||-------------------------|-------------------------|
|-13----13----13----13----|-15----15----15----15----||----17----17----17----17-|----20----20----20----20-||-------------------------|-------------------------|X5|-------------------------|-------------------------||-------------------------|-------------------------||-------------------------|-------------------------|
|-13----13----13----13----|-18----18----18----18----||----17----17----17----17-|----17----17----17----17-||-------------------------|-------------------------||-------------------------|-------------------------||-------------------------|-------------------------||-------------------------|-------------------------|
|-------------------------|-------------------------||-------------------------|-------------------------||-7~~---------------------|-------------------------||-0-----------------------|-------------------------||-0-----------------------|-------------------------||-0-----------------------|-------------------------|
Outro (clean guitar): Let it fade out
|-----------------|-----------------|-----------------|-----------------||-----------------|-5---------------|-5---------------|-6---------------||-3---------------|-3---------------|-2---------------|-2---------------||-0---------------|-----------------|-----------------|-----------------||-----------------|-----------------|-----------------|-----------------||-----------------|-----------------|-----------------|-----------------|
|-----------------|-----------------|-----------------|-----------------||-6---------------|-5---------------|-5---------------|-3---------------||-3---------------|-3---------------|-2---------------|-2---------------||-----------------|-----------------|-----------------|-----------------||-----------------|-----------------|-----------------|-----------------||-----------------|-----------------|-----------------|-----------------|
|-----------------|-----------------|-----------------|-----------------||-3---------------|-5---------------|-5---------------|-6---------------||-3---------------|-3---------------|-2---------------|-2---------------||-----------------|-----------------|-----------------|-----------------||-----------------|-----------------|-----------------|-----------------||-----------------|-----------------|-----------------|-----------------|
|-----------------|-----------------|-----------------|-----------------|||-6---------------|-5---------------|-5---------------|-3---------------|||-3---------------|-3---------------|-2---------------|-2---------------|||-----------------|-----------------|-----------------|-----------------|||-----------------|-----------------|-----------------|-----------------|||-----------------|-----------------|-----------------|-----------------||
************************************ | / slide up | \ slide down | h hammer-on | p pull-off | ~ vibrato | + (pinch) harmonic | . palm mute ************************************
Please rate this tab:
x1.0