Crashing Down tab with lyrics by Tnt - Easy chords and tabs for guitar

Tnt – Crashing Down tab

                      "Crashing Down" by TNT

Artist : TNT
Song   : Crashing Down
Album  : Transistor

Intro |-> x3 <-|Eb|----------------------------------------------------------|Bb|------------7---7---7/-----11---11--11--11-11-11--11--11--|Gb|------------6---6---6/-----10---10--10--10-10-10--10--10--|Db|----------------------------------------------------------|Ab|-x-x-x...-------------------------------------------------|Eb|----------------------------------------------------------|
|
Eb|----------------------------------------------------------|Bb|----------------------------------------------------------|Gb|----------------------------------------------------------|Db|------------4---4---4/------8----8---8---8--8--8---8---8--|Ab|------------4---4---4/------8----8---8---8--8--8---8---8--|Eb|------------2---2---2/------6----6---6---6--6--6---6---6--|
|---------------------------------------||-7---7---7-----11---11--11--11-11-11---||-6---6---6-----10---10--10--10-10-10---||---------------------------------------||---------------------------------------||---------------------------------------|
|
|---------------------------------------||---------------------------------------||---------------------------------------||-4---4---4/-----8----8---8---8--8--8---||-4---4---4/-----8----8---8---8--8--8---||-2---2---2/-----6----6---6---6--6--6---|
1st Verse Left|-----------------------------------------||----8--6--8--6--6-6-6---6--6--6--6-6-6---||-5-----------5--5-5-5---5--5--5--5-5-5---||-----------------------------------------||-----------------------------------------||-----------------------------------------|
|
| Right|-----------------------------------------||-----------------------------------------||-5-----5---5-5-5--------5--5--5-5--5--5--||-5-----5---5-5-5--------5--5--5-5--5--5--||-----------------------------------------||-----------------------------------------|
|----------------------------------------------||----7--5--7--4--4-4-4---5--5--5-5--5--5-------||-4-----------4--4-4-4---4--4--4-4--4--4-------||----------------------------------------------||----------------------------------------------||----------------------------------------------|
|
|----------------------------------------------||----------------------------------------------||-4-----4---4-4--4--4---/9--9--9--9--9--9--9\--||-4-----4---4-4--4--4---/9--9--9--9--9--9--9\--||----------------------------------------------||----------------------------------------------|
|---------------------------------------------------||-8---8---8-8-8----10--8--8-8--8--8--8--------------||-7---7---7-7-7-----7--7--7-7--7--7--7--------------||---------------------------------------------------||---------------------------------------------------||---------------------------------------------------|
|
|---------------------------------------------------||---------------------------------------------------||-7--7--7--7--7--7--7--7--7--7--7--7-7--7--7--7--7--||-7--7--7--7--7--7--7--7--7--7--7--7-7--7--7--7--7--||---------------------------------------------------||---------------------------------------------------|
|-11-11-11---11-11-11---10--11--10-11-11--||-11-11-11---11-11-11---11--11--11-11-11--||-----------------------------------------||-----------------------------------------||-----------------------------------------||-----------------------------------------|
|
|-----------------------------------------||-----------------------------------------||-3-----3-----3-----3---------------------||-3-----3-----3-----3---------------------||-----------------------------------------||-----------------------------------------|
|-.---------------.---------------.---------------5-5-5-5-5-5-5\--||-6--6-6--6-------6--6-6--6-------4--4-4--4-------5-5-5-5-5-5-5\--||-5--5-5--5-------5--5-5--5-------4--4-4--4-----------------------||-----------------------------------------------------------------||-----------------------------------------------------------------||-----------------------------------------------------------------|
|
|-----------------------------------------------------------------||-----------------------------------------------------------------||-5-------5-------5-------5-------4-------4-------9-------9-------||-5-------5-------5-------5-------4-------4-------9-------9-------||-----------------------------------------------------------------||-----------------------------------------------------------------|
|-.------------------.--------------------||-8--8-8--8---------10--8--8-8--8--8------||-7--7-7--7----------7--7--7-7--7--7------||-----------------------------------------||-----------------------------------------||-----------------------------------------|
|
|-----------------------------------------||-----------------------------------------||-7--7--7-7-7--7-----7--7--7--7--7--7--7--||-7--7--7-7-7--7-----7--7--7--7--7--7--7--||-----------------------------------------||-----------------------------------------|
|-------------------------------------------------||-------------------------------------------------||-3--3--3--3--3--3--3--3--3--3--3--3--3--3--3--3--||-3--3--3--3--3--3--3--3--3--3--3--3--3--3--3--3--||-------------------------------------------------||-------------------------------------------------|
Chorus|------------------------------------------------------||-4---4------------------------------------------------||-3---3---4---4---5---5--------------------------------||-1---1---4---4---5---5---5---5------------------------||---------2---2---3---3---5---5------------------------||-------------------------3---3------------------------|
|
|-----------------.------------.------------.----------||-4--4--4--4-4----4--4-4--4----4--4-4--4----4--4-4--4--||-3--3--3--3-3----3--3-3--3----3--3-3--3----3--3-3--3--||------------------------------------------------------||------------------------------------------------------||------------------------------------------------------|
|---------------------------------------------------||---------------------------------------------------||---------------------------------------------------||-6---6---8---8---7---7---6---6---------------------||-6---6---8---8---7---7---6---6---------------------||-4---4---6---6---5---5---4---4---------------------|
|
|-.------------.------------.------------.----------||-6--6-6--6----6--6-6--6----6----6--6----6--6-6--6--||-5--5-5--5----5--5-5--5----5----5--5----5--5-5--5--||---------------------------------------------------||---------------------------------------------------||---------------------------------------------------|
|------------------------------------------------------||-4---4------------------------------------------------||-3---3---4---4---5---5--------------------------------||-1---1---4---4---5---5---5---5------------------------||---------2---2---3---3---5---5------------------------||-------------------------3---3------------------------|
|
|-----------------.------------.------------.----------||-4--4--4--4-4----4--4-4--4----4--4-4--4----4--4-4--4--||-3--3--3--3-3----3--3-3--3----3--3-3--3----3--3-3--3--||------------------------------------------------------||------------------------------------------------------||------------------------------------------------------|
|---------------------------------------------------||---------------------------------------------------||---------------------------------------------------||-6---6---8---8---7---7---6---6---------------------||-6---6---8---8---7---7---6---6---------------------||-4---4---6---6---5---5---4---4---------------------|
|
|-.------------.------------.------------.----------||-6--6-6--6----6--6-6--6----6--6-6--6----6--6-6--6--||-5--5-5--5----5--5-5--5----5--5-5--5----5--5-5--5--||---------------------------------------------------||---------------------------------------------------||---------------------------------------------------|
|----------------------------------------------||-7---7---7-----11---11--11--11-11-11--11--11--||-6---6---6-----10---10--10--10-10-10--10--10--||----------------------------------------------||----------------------------------------------||----------------------------------------------|
|
|----------------------------------------------||----------------------------------------------||----------------------------------------------||-4---4---4/-----8----8---8---8--8--8---8---8--||-4---4---4/-----8----8---8---8--8--8---8---8--||-2---2---2/-----6----6---6---6--6--6---6---6--|
|-------------------------------------------||-7---7---7-----11---11--11----11--11--11---||-6---6---6-----10---10--10----10--10--10---||-------------------------------------------||-------------------------------------------||-------------------------------------------|
|
|-------------------------------------------||-------------------------------------------||-------------------------------------------||-4---4---4/-----8----8---8-----8---8---8---||-4---4---4/-----8----8---8-----8---8---8---||-2---2---2/-----6----6---6-----6---6---6---|
2nd Verse Left|-----------------------------------------||----8--6--8--6--6-6-6---6--6--6--6-6-6---||-5-----------5--5-5-5---5--5--5--5-5-5---||-----------------------------------------||-----------------------------------------||-----------------------------------------|
|
| Right|-----------------------------------------||-----------------------------------------||-5-----5---5-5-5--------5--5--5-5--5--5--||-5-----5---5-5-5--------5--5--5-5--5--5--||-----------------------------------------||-----------------------------------------|
|----------------------------------------------||----7--5--7--4--4-4-4---5--5--5-5--5--5-------||-4-----------4--4-4-4---4--4--4-4--4--4-------||----------------------------------------------||----------------------------------------------||----------------------------------------------|
|
|----------------------------------------------||----------------------------------------------||-4-----4---4-4--4--4---/9--9--9--9--9--9--9\--||-4-----4---4-4--4--4---/9--9--9--9--9--9--9\--||----------------------------------------------||----------------------------------------------|
|-.-----------------------.-----------------------||-8--8-8--8---------------8--8-8--8---------------||-7--7-7--7---------------7--7-7--7---------------||-------------------------------------------------||-------------------------------------------------||-------------------------------------------------|
|
|-------------------------------------------------||-------------------------------------------------||-7--7--7--7--7--7--7--7--7--7--7--7--7--7--7--7--||-7--7--7--7--7--7--7--7--7--7--7--7--7--7--7--7--||-------------------------------------------------||-------------------------------------------------|
|---11---11---/11-11-11-11-11-11\--||---11---11---/11-11-11-11-11-11\--||----------------------------------||----------------------------------||----------------------------------||----------------------------------|
|
|----------------------------------||----------------------------------||-3-----3-----3-----3--------------||-3-----3-----3-----3--------------||----------------------------------||----------------------------------|
|-.---------------.---------------.---------------5-5-5-5-5-5-5\--||-6--6-6--6-------6--6-6--6-------4--4-4--4-------5-5-5-5-5-5-5\--||-5--5-5--5-------5--5-5--5-------4--4-4--4-----------------------||-----------------------------------------------------------------||-----------------------------------------------------------------||-----------------------------------------------------------------|
|
|-----------------------------------------------------------------||-----------------------------------------------------------------||-5-------5-------5-------5-------4-------4-------9-------9-------||-5-------5-------5-------5-------4-------4-------9-------9-------||-----------------------------------------------------------------||-----------------------------------------------------------------|
|-.------------------.--------------------||-8--8-8--8----------8--8-8--8------------||-7--7-7--7----------7--7-7--7------------||-----------------------------------------||-----------------------------------------||-----------------------------------------|
|
|-----------------------------------------||-----------------------------------------||-7--7--7-7-7--7-----7--7--7--7--7--7--7--||-7--7--7-7-7--7-----7--7--7--7--7--7--7--||-----------------------------------------||-----------------------------------------|
|-------------------------------------------------||-------------------------------------------------||-3--3--3--3--3--3--3--3--3--3--3--3--3--3--3--3--||-3--3--3--3--3--3--3--3--3--3--3--3--3--3--3--3--||-------------------------------------------------||-------------------------------------------------|
|
|----------------------------11-11-11-11-11-11\---||----------------------------11-11-11-11-11-11\---||-------------------------------------------------||-------------------------------------------------||-------------------------------------------------|
Repeat Chorus
Guitar Solo . .|-10-10-10-10-10-10/--13--10--10-13--13~----------||-10-10-10-10-10-10/--13--10--10-13--13~---x--x-x-||-------------------------------------------------||-------------------------------------------------||-------------------------------------------------||-------------------------------------------------|
|------------------13-------15\-----15~-----13--------------------||-15~--15~---13/15----15/17---------15~-----13--13---------13-----||-----------------------------------------------12b1/\p10--12p10--||-12~--12~--------------------------------------------------------||-----------------------------------------------------------------||-----------------------------------------------------------------|
.|-------------------10----------------------------||--.----------------10---------------.------------||-/14-14-12~---10---------12p10--10--12--12bq/\~--||-------------------------------------------------||-------------------------------------------------||-------------------------------------------------|
|
|-------------------------------------------------||-------------------------------------------------||-------------------------------------------------||-------------------------------------------------||-------------------------10p8----8--10--10bq/\~--||-------------------------------------------------|
Backing guitar during solo|-------------------------------------------------||-------------------------------------------------||-------------------------------------------------||-3-----------------------------------------------||-------4-----5-----0-----1-----3-----2-----1-----||-------------------------------------------------|
Repeat Chorus |-> x3 <-||-----------------------------------------------||-7---7---7/-----11---11--11--11-11-11--11--11--||-6---6---6/-----10---10--10--10-10-10--10--10--||-----------------------------------------------||-----------------------------------------------||-----------------------------------------------|
|
|-----------------------------------------------||-----------------------------------------------||-----------------------------------------------||-4---4---4/------8----8---8---8--8--8---8---8--||-4---4---4/------8----8---8---8--8--8---8---8--||-2---2---2/------6----6---6---6--6--6---6---6--|
|-----------------------------||-7---7---7-7-7--7/-----11----||-6---6---6-6-6--6/-----10----||-----------------------------||-----------------------------||-----------------------------|
|
|-----------------------------||-----------------------------||-----------------------------||-4---4---4-4-4--4/------8----||-4---4---4-4-4--4/------8----||-2---2---2-2-2--2/------6----|
|
|-----------------------------||-----------------------------||------------------------8~---||------------------------8~---||------------------------6~---||-----------------------------|
* Legend * / = Slide up \ = Slide down h = Hammer-on p = Pull-off ~ = Vibrato . = Staccato b?/ = Bend : ? represents how many steps to bend bh/ = Bend a 'half' step b1/ = Bend a whole step b1.5/ = Bend whole and a half steps b?\ = Release : ? represents how many steps to release. If no number is present, release it to the original pitch. This notation could be just '\' as in bh/ \ / for bending, releasing to the original pitch, then bending again _________ _________ \ __ __ \ / __ __ / \ \| | \/\ |\/ | |/ / \ | | | \| | | | / \| | | |\ | | |/ |_|\|_| |_|/|_| \\ // \\ // \v/ T R A N S I S T O R
Please rate this tab:
x1.0