Tomi Paldanius - Goodbye Blue Sky tab

--------------------------------------------------------------------
     Goodbye Blue Sky - Pink Floyd (Arranged by Tomi Paldanius)
--------------------------------------------------------------------

Tabbed by: Karpassieni
Tuning: C# G# C# F# A# D#

|---------------------------------------------------------------||---------------------------------------------------------------||-------------0-------------------------------0-----------------||-----4---------------4-------4-------4---------------4-------4-||---------5-------5-------5---------------5-------5-------5-----||-0-------------------------------0-----------------------------|
|--------------------------------------------------------------------||--------------------------------------------------------------------||-------------0-------------------------------0----------------------||-----4---------------4-------4-------4---------------4---2---0------||---------5-------5-------5---------------5-------5--------------2-0-||-0-------------------------------0----------------------------------|
|---------------------------------------------------------------------||---------------------------------------------------------------------||-5--5--5--------4--4-----------------------5--5--5--------4--4-------||---------------------------------------------------------------------||-0-----0-----0-----0----0----0----0---0----0-----0-----0-----0-----0-||---------------------------------------------------------------------|
|--------------------------------------------------------------||--------------------------------------------------------------||-------------------5--5--5--------4--4--------4-----5-----6---||--------------------------------------------------------------||-0-----0-----0-----0-----0-----0-----0-----0-----0-----0------||--------------------------------------------------------------|
|-----------------------------------------------------------------||-3---------------------------------------------------------------||---------0---------------0---------------0---------------0-------||-----4-------4-------4-------4-------4-------4-------4-------4---||-----------------5-------------------------------5---------------||-0-------------------------------0-------------------------------|
|----5------3--------2--------0---------------------------------------||----7------5--------3--------2-----2h3p2--0--------------------------||----7------6--------4--------2-----2----------------0-----------0----||-------------------------------------------------4-----4-----4-----4-||----------------------------------------------2-----------2----------||-0------0-----0--0-----0--0-----0------------------------------------|
|-----------------------------5-----3--------2--------0--------------||-----------------------------7-----5--------3--------2-----2h3p2--0-||-------0-----------0---------7-----6--------4--------2-----2--------||----4-----4-----4-----4---------------------------------------------||-2-----------2------------------------------------------------------||--------------------------0-----0-----0--0-----0--0-----0-----------|
|--------------------------------------------------||--------------------------------------------------||-------0-----------0-----------0-----------0------||----4-----4-----4-----4-----4-----4-----4-----4---||-2-----------2-----------2-----------2------------||--------------------------------------------------|
|----5------3--------2--------0---------------------------------------||----7------5--------3--------2-----2h3p2--0--------------------------||----7------6--------4--------2-----2----------------0-----------0----||-------------------------------------------------4-----4-----4-----4-||----------------------------------------------2-----------2----------||-0------0-----0--0-----0--0-----0------------------------------------|
|-----------------------------8--8--8--8--8--8--8--8s7--7-------------||-----------------------------5--5--5--5--5--5--5--5s4--4-------------||-------0-----------0-------------------------------------------------||----4-----4-----4-----4----------------------------------------------||-2-----------2------------0-----0-----0-----0-----0----0---0---0---0-||---------------------------------------------------------------------|
|----8--8--8--8--8--8--8--8s7--7-------------------||----5--5--5--5--5--5--5--5s4--4-------------------||--------------------------------------------------||--------------------------------------------------||-0-----0-----0-----0-----0----0-----0-----0-----0-||--------------------------------------------------|
|----8--8--8--8--8--8--8--8s7--7--7--7s5---5--||----5--5--5--5--5--5--5--5s4--4--4--4s2---2--||---------------------------------------------||---------------------------------------------||-0-----0-----0-----0-----0----0-----0-----0--||---------------------------------------------|
|-5--5s3--3--3-----------------------------------------2-----2--||-2--2-------------7--7--7--7s5---5--5--5--3--2--0--------------||------------------4--4--4--4s2---2--2--------------------------||---------------------------------------------------------4-----||----0----0-----0-----0-----0-----0-----0-----------2-----------||---------------------------------------------------------------|
|----------------------------------------------------------------||----------------------------------------------------------------||-------0-----------0-----------0---------------0----------------||----4-----4-----4-----4-----4-----4------4-----------4-----4----||-2-----------2-----------2------------------5-----5-----5-------||--------------------------------------0-------------------------|
|------------------------------------------------------------------------||------------------------------------------------------------------------||----------0-----------------------0-----------------------0-------------||----4-----------4-----4-----4-----------4-----4-----4-----------4-----4-||-------5-----5-----5-----------5-----5-----5-----------5-----5-----5----||-0-----------------------0-----------------------0----------------------|
|----5------3--------2--------0---------------------------------------||----7------5--------3--------2-----2h3p2--0--------------------------||----7------6--------4--------2-----2----------------0-----------0----||-------------------------------------------------4-----4-----4-----4-||----------------------------------------------2-----------2----------||-0------0-----0--0-----0--0-----0------------------------------------|
|-----------------------------5-----3--------2--------0--------------||-----------------------------7-----5--------3--------2-----2h3p2--0-||-------0-----------0---------7-----6--------4--------2-----2--------||----4-----4-----4-----4---------------------------------------------||-2-----------2------------------------------------------------------||--------------------------0-----0-----0--0-----0--0-----0-----------|
|--------------------------------------------------||--------------------------------------------------||-------0-----------0-----------0-----------0------||----4-----4-----4-----4-----4-----4-----4-----4---||-2-----------2-----------2-----------2------------||--------------------------------------------------|
|----8--8--8--8--8--8--8--8s7--7--------------------8--8--8--8s10--||----5--5--5--5--5--5--5--5s4--4--------------------5--5--5--5s7---||------------------------------------------------------------------||------------------------------------------------------------------||-0-----0-----0-----0-----0----0----0----0----0---0----0-----0-----||------------------------------------------------------------------|
|10s8---8s7---7----------------------8--8--8--8--8--8--8--8s7--7-------||-7s5---5s4---4----------------------5--5--5--5--5--5--5--5s4--4-------||----------------------------------------------------------------------||----------------------------------------------------------------------||-0-----0-----0----0----0----0----0-----0-----0-----0-----0----0----0--||----------------------------------------------------------------------|
|-8-----9--10-----------------------------------------------||-5-----6---------------------------------------------------||--------------------0-----------------------0--------------||-----------------0-----0-----0-----------0-----0-----0-----||----0---------9-----------9-----9-----9-----------9-----9--||-----------0-----------------------0-----------------------|
|----5-----3--------7--------5-----------5-----3--------7--------5-||----7-----5--------8--------7-----------7-----5--------8--------7-||----7-----6--------9--------7-----------7-----6--------9--------7-||------------------------------------------------------------------||------------------------------------------------------------------||-0-----0-----0--0-----0--0-----0--0--0-----0-----0--0-----0--0----|
|----5--3-----------------------5--3-----------------------------||----5--4-----------------------5--4-----------------------------||----7--5-----------------------7--5-----------------------------||----------------------------------------------------------------||-------------------------------------------------------5p3p0----||-0--0-----0--0--0--0--0--0--0--0-----0--0--0--0--0--0---------3-|
|------------------------------------------------------------------------||------------------------------------------------------------------------||----------0-----------------------0-----------------------0-------------||----4-----------4-----4-----4-----------4-----4-----4-----------4-----4-||-------5-----5-----5-----------5-----5-----5-----------5-----5-----5----||-0-----------------------0-----------------------0----------------------|
|------------||------------||------------||------------||------------||-0----------|
Tap to rate this tab
 
# A B C D E F G H I J K L M N O P Q R S T U V W X Y Z