Related for Canned Heat tab

Tommy Johnson – Canned Heat tab

CANNED HEAT / TOMMY JOHNSON    loner 133


E||--------------------|-----------2-----2---------|-----------2-----2---------|B||--------------------|-----------3-----3---------|-----------3-----3---------|G||--------------------|-----2--4--2--2--2--4------|-----2--4--2--2--2--4------|D||----------------3h4-|-----------------------3h4-|-----------------------3h4-|A||--------------------|--0------------------------|--0------------------------|D||--------------------|---------------------------|---------------------------|
-----------2-----2---------|-----------------------------|-----------3-----3---------|-----------------------------|-----2--4--2--2--2--4------|--2------2------2------2-----|-----------------------3h4-|-----3h4----3h4----3h4-------|--0------------------------|--------------------------1--|---------------------------|-----------------------------|
--------0-----1-----0-----|--------0-----1-----0-----|-----3--3--3--3--3--3-----|-----3--3--3--3--3--3-----|--------0-----0-----0-----|--------0-----0-----0-----|--------------------------|--------------------------|--2--------------------1--|--2--------------------0--|--------------------------|--------------------------|
-----2-----2-----2---------|-----------2-----2---------|-----3-----3-----3---------|-----------3-----3---------|-----2--4--2--2--2--4------|-----2--4--2--2--2--4------|--0--------------------3h4-|-----------------------1/2-|---------------------------|--0------------------------|---------------------------|---------------------------|
-----5--5--5--5--3--3-----|--------0-----1-----0-----|-----2--2--2--2--2--2-----|-----3--3--3--3--3--3-----|-----2--2--2--2--2--2-----|--------0-----0-----0-----|--------------------------|--------------------------|--0--------------------1--|--2--------------------0--|--------------------------|--------------------------|
-----2-----2-----2---------|-----------2-----2---------|-----3-----3-----3---------|-----------3-----3---------|-----2--4--2--2--2--4------|-----2--4--2--2--2--4------|--0--------------------3h4-|-----------------------3h4-|---------------------------|--0------------------------|---------------------------|---------------------------|
---------5--5--5--4--3--2--|-----2-----2-----2---------|-----5/7-7--7--7--6--5--3--|-----3-----3-----3---------|------------------------2--|-----2--4-----2--2--4------|------------------------0--|-----------------------2/7-|---------------------------|---------------------------|--0------------------------|--0------------------------|
-----10--10--10--10--7--7---0--|--2--2-----------------------|-----7---7---7---7---7--10--0--|--3--3-----------------------|-----7---7---7---7---7--7---0--|--2--2------2------2---------|-------------------------------|--------3h4----3-4h---3h4----|-------------------------------|--------------------------1--|--0----------------------------|-----------------------------|
--------0-----1-----0-----|--------0-----1-----0-----|-----3--3--3--3--3--3-----|-----3--3--3--3--3--3-----|--------0-----0-----0-----|--------0-----0-----0-----|--------------------------|--------------------------|--2--------------------1--|--2--------------------0--|--------------------------|--------------------------|
-----------2-----2---------|-----------2-----2---------|-----------3-----3---------|-----------3-----3---------|-----2--4--2--2--2--4------|-----2--4--2--2--2--4------|-----------------------3h4-|-----------------------1/2-|--0------------------------|--0------------------------|---------------------------|---------------------------|
-----5--5--5--5--3--3-----|--------0-----1-----0-----|-----2--2--2--2--2--2-----|-----3--3--3--3--3--3-----|-----2--2--2--2--2--2-----|--------0-----0-----0-----|--------------------------|--------------------------|--0--------------------1--|--2--------------------0--|--------------------------|--------------------------|
-----2-----2-----2---------|-----------2-----2---------|-----3-----3-----3---------|-----------3-----3---------|-----2--4--2--2--2--4------|-----2--4--2--2--2--4------|--0--------------------3h4-|-----------------------3h4-|---------------------------|--0------------------------|---------------------------|---------------------------|
-----------2-----2--2----||-----------3-----3--3----||-----2--4--2--2--2--2----||--------------------0----||--0----------------------||--------------------0----||
Please rate this tab:
x1.0