Trevor Jones And Randy Edelman - The Last Of The Mohicans Theme tab

The theme to Last of the Mohicans (melody)

by ear, but completely correct

You can add styling (slides, pulloffs, etc) where and if you want it.

Notes farther apart = slowing down (I didn't mess up during tabbing)


|-------------------------------------------------------------------------||------------------------------8----------10-------8------8---------------||--10-------9-7---------7-10-9---------10------------10-9---------9-9-7---||---------------7---------------------------------------------------------||-------------------------------------------------------------------------||-------------------------------------------------------------------------|
|--------------------------------------------------------------||---------------------------------------------------------10---||--10-9-7------------------10-9-7------------------7--10-------||---------------10-7--------------------10-7-------------------||--------------------------------------------------------------||--------------------------------------------------------------|
|---------------------------||--8---------8--------------||-----10--9----------9--7---||---------------------------||---------------------------||---------------------------|
"The Kiss" and "Promentory" (same melody)
|----------|----------|----------|-----------||----------|----------|----------|-----------||----------|-10---9-7-|-9---7----|-7---------||--7---7-7-|----------|-------10-|-----9-----| 2x|----------|----------|----------|-------10--||----------|----------|----------|-----------|
|------------|---------|---------|----------||------------|---------|-8-------|----------||------------|-9---7-9-|-----9-9-|-9---7-9--||--10---9-10-|---------|---------|----------| 2x|------------|---------|---------|----------||------------|---------|---------|----------|
|-------------|------------|------------|-----------||-------------|------------|------------|-----------||--10---10-10-|-10---10-10-|-12---10-10-|-10---9-7--||-------------|------------|------------|-----------||-------------|------------|------------|-----------||-------------|------------|------------|-----------|
|----------|---------|----------|-----------||----------|---------|----------|-----------||--9---9-9-|-9---9-9-|-12---9-9-|-9---7-----||----------|---------|----------|-------10--||----------|---------|----------|-----------||----------|---------|----------|-----------|
|-----------|----------|----------|----------||-----------|----------|----------|----------||--7------7-|-7------7-|-10---9-7-|-----7-7--||------10---|-----10---|----------|-7--------||-----------|----------|----------|----------||-----------|----------|----------|----------|
|-----------|----------|----------|------------||-----------|----------|----------|------------||--7------7-|-7------7-|-10---9-7-|-9----7-----||------10---|-----10---|----------|--------10--||-----------|----------|----------|------------||-----------|----------|----------|------------|
Lather, rinse, repeat! Enjoy! tabbed by ICP
Tap to rate this tab
 
# A B C D E F G H I J K L M N O P Q R S T U V W X Y Z