Tristan Prettyman - Shy That Way tab

Jason Mraz feat. Tristan Prettyman
Shy That Way (live in Jacksonville, FL)
Tuning: Standard
Transcribed by Soch Hean

Natural Harmonic Intro:|-<12>-x--<12>-x-<7>--x---x-x-x-0-<12>--<7>--<12>-x------x---x------------||-<12>-x--<12>-x-<7>--x---x-x-x-0-<12>--<7>--<12>-x-15~--x---x------------||------x-------x------x---x-x-x-------------------x------x---x------------||------x-------x------x---x-x-x-------------------x------x---x------------||------x-------x------x---x-x-x-------------------x------x---x------------||------x-------x------x---x-x-x-------------------x------x---x------------|
|-<12>--<7>-----<12>-x-<7>--x---x-0-<12>--<7>--<12>---------------||-<12>--<7>-----<12>-x------x---x-0-<12>--<7>--<12>--15~-\--------||--------------------x------x---x---------------------------------||--------------------x------x---x---------------------------------||--------------------x------x---x---------------------------------||--------------------x------x---x---------------------------------|
Intro:|------------7\-x------2---------------------------x-0----x--0----2-x-0---||----8-------8\-x--3-----3-----3---------1-------3-x-1--1-x--1----3-x-0---||-7--7----7-----x--2---------2---2----0--0----0--0-x-0----x----0----x-----||-9-----9-------x--0-------0-------0--2-----2------x------x---------x-----||---------------x---------------------3------------x------x---------x-----||-0-------------x----------------------------------x------x---------x-----|
|------------7\-x------x------3--x--------------x-0----x--0----2-x-0---||----8-------8\-x--3---x---3--3--x------1-----3-x-1--1-x--1----3-x-0---||----7----7-----x--2---x---------x-0----0-----0-x-0----x----0----x-----||-------9-------x--0---x-0-------x-2--------2---x------x---------x-----||---------------x------x---------x---3----3-----x------x---------x-----||-0-------------x------x---------x--------------x------x---------x-----|
|------------7\-x------2---------------------------x-0----x--0----2-x-0---||----8-------8\-x--3-----3-----3---------1-------3-x-1--1-x--1----3-x-0---||----7----7-----x--2---------2---2----0--0----0--0-x-0----x----0----x-----||-------9-------x--0-------0-------0--2-----2------x------x---------x-----||---------------x---------------------3------------x------x---------x-----||-0-------------x----------------------------------x------x---------x-----|
|------------7\-x------x------3--x--------------x-0----x--0----2-x--0----||----8-------8\-x--3---x---3--3--x------1-----3-x-1--1-x--1----3-x--0----||----7----7-----x--2---x---------x-0----0-----0-x-0----x----0----x-------||-------9-------x--0---x-0-------x-2--------2---x------x---------x-------||---------------x------x---------x---3----3-----x------x---------x-------||-0-------------x------x---------x--------------x------x---------x-------|
Verse:|-----------7\-x----x-------x-----x-------x----x-0---2-x-0------||-----------8\-x-3--x-----3-x-1---x-----1-x-1--x-1---3-x-0------||----7---7-----x-2--x---2---x-0---x---0---x-0--x---0---x--------||------9-------x-0--x-0-----x-----x-------x----x-------x--------||--------------x----x-------x---3-x-3-----x----x-------x--------||-0------------x----x-------x-----x-------x----x-------x--------| (x3)
|-----------7\-x----x-------x-----x-------x----x-------x-----x--||-----------8\-x-3--x-----3-x-1---x-----1-x-1--x-----1-x-1---x--||----7---7-----x-2--x---2---x-0---x---0---x-0--x---0-0-x-0---x--||------9-------x-0--x-0-----x-----x-------x----x-------x-----x--||--------------x----x-------x---3-x-3-----x----x-3-----x---3-x--||-0------------x----x-------x-----x-------x----x-------x-----x--|
Chorus:|-------x----x------------------x----x------7-x------x----||-------x----x----------------8-x-7--x----7---x-1----x----||-3---3-x-2--x--------------7---x-7--x--7-----x-0----x----||-2---2-x-1--x------------9-----x-7--x--------x------x----||---3---x-2--x--2---------------x----x--------x----3-x----||-------x----x-----3--0---------x----x--------x------x----| (x3)
|-------x----x------------------x----x---x---||-------x----x----------------8-x-8--x---x---||-3---3-x-2--x--------------7---x-7--x---x---||-2---2-x-1--x------------9-----x-9--x---x---||---3---x-2--x--2---------------x----x---x---||-------x----x-----3--0---------x----x---x---|
Verse 2:|-----------7\-x----x-------x-----x-------x----x-------x-0------||-8---------8\-x-3--x-----3-x-1---x-----1-x-3--x-----3-x-0------||-7--7---7-----x-2--x---2---x-0---x---0---x-0--x---0---x--------||-9----9-------x-0--x-0-----x-----x-------x----x-------x--------||--------------x----x-------x---3-x-3-----x----x-3-----x--------||--------------x----x-------x-----x-------x----x-------x--------|
|-----------7\-x----x-------x-----x-------x----x-0---2-x-0------||-----------8\-x-3--x-----3-x-1---x-----1-x-3--x-1---3-x-0------||----7---7-----x-2--x---2---x-0---x---0---x-0--x---0---x--------||------9-------x-0--x-0-----x-----x-------x----x-------x--------||--------------x----x-------x---3-x-3-----x----x-------x--------||-0------------x----x-------x-----x-------x----x-------x--------|
|-----------7\-x----x-------x-----x---------x---0-x--------2-x-0---||-----------8\-x-3--x-----3-x-1---x-0h1p0---x-3---x-0h1p0--3-x-0---||----7---7-----x-2--x---2---x-0---x-------0-x-0---x----------x-----||------9-------x-0--x-0-----x-----x---------x-----x----------x-----||--------------x----x-------x---3-x---------x-----x----------x-----||-0------------x----x-------x-----x---------x-----x----------x-----|
|-----------7\-x----x-------x-----x-------x----x-------x-----x--||-----------8\-x-3--x-----3-x-1---x-----1-x-1--x-----1-x-1---x--||----7---7-----x-2--x---2---x-0---x---0---x-0--x---0-0-x-0---x--||------9-------x-0--x-0-----x-----x-------x----x-------x-----x--||--------------x----x-------x---3-x-3-----x----x-3-----x---3-x--||-0------------x----x-------x-----x-------x----x-------x-----x--|
Chorus:|-------x----x------------------x----x------7-x------x----||-------x----x----------------8-x-7--x----7---x-1----x----||-3---3-x-2--x--------------7---x-7--x--7-----x-0----x----||-2---2-x-1--x------------9-----x-7--x--------x------x----||---3---x-2--x--2---------------x----x--------x----3-x----||-------x----x-----3--0---------x----x--------x------x----|
|-------x----x------------------x-7~-x------0-x------x----||-------x----x----------------8-x-8~-x--------x-1----x----||-3---3-x-2--x--------------7---x----x----7---x-0----x----||-2---2-x-1--x------------9-----x----x--9-----x------x----||---3---x-2--x--2---------------x----x--------x----3-x----||-------x----x-----3--0---------x----x--------x------x----|
|-------x----x------------------x----x------7-x------||-------x----x----------------8-x-7--x----7---x-1----||-3---3-x-2--x--------------7---x-7--x--7-----x-0----||-2---2-x-1--x------------9-----x-7--x--------x------||---3---x-2--x--2---------------x----x--------x----3-||-------x----x-----3--0---------x----x--------x------|
|---------x----x------------------x----x----||---------x----x----------------8-x-8--x----||-3-----3-x-2--x--------------7---x-7--x----||-2-----2-x-1--x------------9-----x-9--x----||---3-3---x-2--x--2---------------x----x----||---------x----x-----3--0---------x----x----|
Guitar Solo:|---------------------------------------------------------------||------------------------------------------0-0-----8--5s8~------||-7s9=s7-----------------------------------0-0--7---------------||--------9-7--5-7----5-7--4~-4h5h7-----5------------------------||------------------7---------------5-7---7----------------------||---------------------------------------------------------------|
|------------------------------------------------------------------------------||------------------------------------------0-0------8s12--12--------12---10h12-||-7s9-7------------------------------------0-0--7-7-------12-----12------------||-------9-7--5-7----5-7--4~--4h5h7-----5----------------------12---------------||-----------------7----------------5-7---7-------------------------------------||------------------------------------------------------------------------------|
Bridge:|---x-------x----x-------x-----x-------x---x-------x----||---x-------x----x-------x--8--x-----8-x-7-x-----7-x----||-5-x-----5-x--7-x-----7-x--7--x---7---x-7-x---7---x----||-5-x-----5-x--7-x---7---x--9--x-------x---x-------x----||-3-x-3-----x--5-x-5-----x-----x-7-----x-5-x-5-----x----||---x-------x----x-------x-----x-------x---x-------x----|
|---x-------x----x-------x-----x-------x---x--x-||---x-------x----x-------x--8--x-----8-x-8-x--x-||-5-x-----5-x--7-x-----7-x--7--x---7---x-7-x--x-||-5-x-----5-x--7-x---7---x--9--x-------x---x--x-||-3-x-3-----x--5-x-5-----x-----x-7-----x-7-x--x-||---x-------x----x-------x-----x-------x---x--x-|
Chorus:|--------------x----x----------x-------x----x------7-x-------||--------------x----x----------x-----8-x-7--x----7---x-1-----||-----3--3---3-x-2--x----------x---7---x-7--x--7-----x-0-----||---2----2---2-x-1--x----------x-9-----x-7--x--------x-------||-3--------3---x-2--x--2-------x-------x----x--------x----3--||--------------x----x-----3--0-x-------x----x--------x-------|
|---------x----x----------x-------x----x------7-x-------||---------x----x----------x-----8-x-7--x----7---x-1-----||-3-----3-x-2--x----------x---7---x-7--x--7-----x-0-----||-2-----2-x-1--x----------x-9-----x-7--x--------x-------||---3-3---x-2--x--2-------x-------x----x--------x----3--||---------x----x-----3--0-x-------x----x--------x-------|
|---------x----x----------x-------x----x------7-x-------||---------x----x----------x-----8-x-7--x----7---x-1-----||-3-----3-x-2--x----------x---7---x-7--x--7-----x-0-----||-----2---x-1--x----------x-9-----x-7--x--------x-------||---3-----x-2--x--2-------x-------x----x--------x----3--||---------x----x-----3--0-x-------x----x--------x-------|
Outro: natural harmonic|---------x----x--------------------<12>-----||---------x----x--------------------<12>-----||-3-----3-x-2--x--------------------<12>-----||-2-----2-x-1--x-----------------------------||---3-3---x-2--x--2--------------------------||---------x----x-----3--0--------------------|
Legend: s - slide h - hammeron p - pulloff <#> - natural harmonic X's mean tap the guitar body, (Think of Extreme's "More Than Words")
Tap to rate this tab
 
# A B C D E F G H I J K L M N O P Q R S T U V W X Y Z