Triumph - Midsummers Daydream tab

 
 midsummer's daydream by rik emmett .  band, triumph          
                                                         

this song is played with the 6th string tuned down to a D

harmonic fast|-----------------------------------------------------| |--------------<7>----<7>----<12>---------------------||----------------<7>------------<12>------------------||----<12>----------<7>-------------<12>---<7>---------||------<12>---------------------------------<7>-------||-<12>---<12>---------------------------------<7>~----|
|-----------------------------------------------------| )x2|---------------<7>----<7>----<12>--------------------||-----------------<7>------------<12>-----------------||-----<12>----------<7>-------------<12>-----<7>~~~~~-||-------<12>---------------------------------<7>~~~~~-||-<12>----<12>-------------------------------<7>~~~~~-|
|---------------------------|-------------------------||--7h8h10p8p7---------------|-------------------------||-------------9p7p6---6h7h9-|-------------------------||-------------------9-------|-4h5h7p5p4---------------||---------------------------|-----------7p5p4--4h5h7--||---------------------------|-----------------7-------|
|------------------------------------------------------------||----10-------8-------7------5-----5\3--------3------5-------||------11-------9-------7----6-----6\4-4--------4------6-----||-----------------0-------------------------5------------7---||---------0---------------0-----0-----------------0----------||-0--------------------------------------0-------------------|
|-----------------9p5---|---5-------3-------2----------------||-----5h7p5----------5~~|---7-------5-------3------5---5\3---||----------7------------|-----7-------4-------2----6---6\4-4-||-----------------------|----------------0-------------------||-------------0---------|--------0---------------0---0-------||-0---------------------|-0----------------------------------|
|---------------------------------------------------||-------3---------5----------7h8p7---2------2h3~~~--||-------4---------6---------7--------2-----2~~~~~---||-----5---5---------7------7---------2----2h--4~~~--||------------0-----------------------0--0~~~~~~~----||-0--------------------0----------------------------|
|---------------|-------------------------------|---------------||---3-----3--5--|---7h8p7-----------------------|---3-----3--5--||----4----4--6--|---------7h9p7--2-4-2----------|----4----4--6--||-----5---5--7--|----------------------2-4-2p0--|-----5---5--7--||---------------|-------------------------------|---------------||-5-------5--7--|-0-----------------------------|-5-------5--7--|
|-------------10~-|------------------------------7-9----------------||----7h8p7--------|-----3-----3--5----7------10-----10---<12>~~~~---||---------7-------|------4----4--6-----7-----9-----------<12>~~~~---||----------7~~~~~-|-------5---5--7----------7------------<12>~~~~---||-----------------|------------------------7------------------------||-0~~~~~~~~~~~~~~-|--5--------5--7--9-----7-------------------------|
|----------------------------------------------------------------||-12--14--15---15--14---14--12---12--10---10--8--7--5---5--3---3-||------------0--------0--------0--------0-------------0------0---||----------------------------------------------------------------||-10--12--14-------12-------10-------9--------7--5--4------2-----||----------------------------------------------------------------|
|-----------------------------------------------------||-2h3h5p3p2p0h2p0-------------------------------------||-0---------------2h4p2p0h2p0-------------------------||-----------------------------4h5p4-2h4p2p0-----------||-0------------------------------------------2h4p2p0--||-----------------------------------------------------|
|-------------------------------------|---------------------||---10-------8------7------5----5\3---|-----3------5--------||-----11-------9------7----6----6\4-4-|-------4------6------||----------------0--------------------|---5------------7----||--------0--------------0----0--------|----------0----------||-0-----------------------------------|-0----------------0--|
|------------9p5----|----5------3-------2---------------------||-5h7p5---------5---|----7------5-------3------5----5\3-------||-------7---------7-|------7------4-------2----6----6\4-4-----||-------------------|----------------0------------------------||---------0---------|--------0--------------0----0------------||-------------------|-0---------------------------------------|
|-------------------------------10~-|------3-3-3-3-3-5-------||------3-------5--------7h8p7-------|------3-3-3-3-3-5-------||------4-------6-------7-----7------|------4-4-4-4-4-6-------||----5---5-------7----7-------7~~~~-|-7-7--5-5-5-5-5-7-------||-----------0-----------------------|-5-5--3-3-3-3-3-5-------||-0----------------0----------------|-7-7--5-------5-7--0-0--|
|--10---------5---------------------|------3-3-3-3-5-|---10------------14~||--10h12p10---5h7p5-----------------|------3-3-3-3-5-|---10h12p10---------||--------------------7------2-------|------4-4-4-4-6-|-------------11/14~~||--------------------7h9p7--2h4p4p0-|------5-5-5-5-7-|--------------------||-----------------------------------|----------------|--------------------||-----------------------------------|--5-------------|-0------------------|
|-3-3-3-3-3-5---7-7-7-7---9--9--9--9-10-10-10-10-10-10-10-10-10-10-------||-3-3-3-3-3-5---7-7-7-7--10-10-10-10-----0--0--0--0--0--0--0--0--0-------| |-4-4-4-4-4-6---8-8-8-8---9--9--9--9-----0--0--0--0--0--0--0--0--0-------| |-5-5-5-5-5-7---9-9-9-9---7--7--7--7-----0--0--0--0--0--0--0--0--0-------||-3-3-3-3-3-5---7-7-7-7---7--7--7--7-----0--0--0--0--0--0--0--0--0-------||-5-5-5-5-5-7-9-9-9-9-9-7-7--7--7--7-----5--5--5--5--5--5--5--5--5-------|
|-----------------------------------------------------------------||-12--14--15---15--14---14--12---12--10---10--8--7--5---5--3---3--||------------0--------0--------0--------0-------------0------0----||-----------------------------------------------------------------||-10--12--14-------12-------10-------9--------7--5--4------2------||-----------------------------------------------------------------|
|---------------------------------------------------||-2h3h5p3p2p0h2p0-----------------------------------||-0----------------2h4p2p0--------------------------||---------------------------4h5p4-2h4p2p0-----------||-----------------------------------------2h4p2p0---||-0-------------------------------------------------|
|-----------------------------------------------------| |-----------------<7>----<7>----<12>------------------| |-------------------<7>------------<12>---------------| |-----<12>------------<7>-------------<12>---<7>------| |-------<12>-----------------------------------<7>----| |-<12>----<12>-----------------------------------<7>--|
x2 |-----------------------------------------------------| |-----------------<7>----<7>----<12>------------------| |-------------------<7>------------<12>---------------| |-----<12>------------<7>-------------<12>----<7>~~~~-| |-------<12>----------------------------------<7>~~~~-| |-<12>----<12>--------------------------------<7>~~~~-|
|------------------------|----------------------|---------------------------||-7h8h10p8p7-------------|----------------------|---------------------------||------------9p7p6-6h7h9-|----------------------|---------------------------||-----------------9------|-4h5h7p5p4------------|---------------------------||------------------------|----------7p5p4-4h5h7-|4h5h7p5p4\2h4p2p0----------||------------------------|---------------7------|----------------4h5p4p2p0--|
|-----------------------------||----2---2h3~~~~~-------------||---2---2~~~~~~~--------------||--2---2h--4~~~~~-------------||-0---------------------------||-----------------------------|
steve,,, pompom@sympatico.ca pompom020366@hotmail.com
Tap to rate this tab
 
# A B C D E F G H I J K L M N O P Q R S T U V W X Y Z