Trivium - Dusk Dismantled tab version 1

Title: Dusk Dismantled
Artist: Trivium
Album: In Waves
Tabber: Peter Macaulay(Xiphos707fx) & Jack [Insatanwetrustslave]
Tempo = 110
Guitar A

Legend
L - tied note
x - dead note
h - hammer on/pull off
b - bend
s - slide
~ - vibrato
g - ghost note
> - accentuated note
t - trill
M - palm mute
. - staccato
P - popping (bass)
S - slapping (bass)
+ - tapping
W - wide vibrato
< - fade in
w - whammy bar
= - tremolo picking
v - brush up
^ - brush down
V - pick stroke up
n - pick stroke down
This is a fairly rough guide, from the two first guys to cover it over on youtube :D
basic formations, if you want complete accuracy wait a week or two
In the intro/ chorus chords corey says the movements are weird, what i hear is the minor
3rd on top going up to the eighth, if you have trouble just play the normal minor chord

D#|----------------------------|A#|-----6--6----(8)(8)----5----|F#|-----7--7-----7--7-----6~---|C#|-----7--7-----7--7-----6~---|G#|-----5--5-----5--5-----4~---|C#|--0M-------0M-------0>------|
----------------------------------------------------|--------6-----6-----------8--8--8--8--5--5--5--5----|--------7-----7-----------9--9--9--9--6--6--6--6----|--------7-----7-----------9--9--9--9--6--6--6--6----|--------5-----5-----------7--7--7--7--4--4--4--4----|--0M----------------0M------------------------------|
----------------------------|-----6--6----(8)(8)----5~---|-----7--7-----7--7-----6~---|-----7--7-----7--7-----6~---|-----5--5-----5--5-----4~---|--0M-------0M-------0>------|
----------------------------------------------------|--------6-----6-----------3--3--3--3--5--5--5--5----|--------7-----7-----------3--3--3--3--6--6--6--6----|--------7-----7-----------3--3--3--3--6--6--6--6----|--------5-----5-----------1--1--1--1--4--4--4--4----|--0M----------------0M------------------------------|
----------------------------|-----6--6----(8)(8)----5----|-----7--7-----7--7-----6~---|-----7--7-----7--7-----6~---|-----5--5-----5--5-----4~---|--0M-------0M-------0>------|
----------------------------------------------------|--------6-----6-----------8--8--8--8--5--5--5--5----|--------7-----7-----------9--9--9--9--6--6--6--6----|--------7-----7-----------9--9--9--9--6--6--6--6----|--------5-----5-----------7--7--7--7--4--4--4--4----|--0M----------------0M------------------------------|
----------------------------|-----6--6----(8)(8)----5~---|-----7--7-----7--7-----6~---|-----7--7-----7--7-----6~---|-----5--5-----5--5-----4~---|--0M-------0M-------0>------|
----------------------------------------------------|--------6-----6-----------3--3--3--3--5--5--5--5----|--------7-----7-----------3--3--3--3--6--6--6--6----|--------7-----7-----------3--3--3--3--6--6--6--6----|--------5-----5-----------1--1--1--1--4--4--4--4----|--0M----------------0M------------------------------|
----------------------------------------------------|----------------------------------------------------|----------------------------------------------------|----------------------------------------------------|----------------------------------------------------|----------------------------------------------------|Guitar A verse 1
---------------------------------------------------|---------------------------------------------------|o--------------------------------------------------|o--------------------------------------------------|-5-------------------------------------------------|-3-----------0--0--0--0--0--0--0--0--0--0--0--0----|
----------------------------------------------------|----------------------------------------------------|----------------------------------------------------|----------------------------------------------------|--5-----------------------8--8--8--8--4--4--4--4----|--3-----------0--0--0--0--7--7--7--7--2--2--2--2----|
Guitar B
--0--0--0--0--0--0--0--0--0--0--0--0--0--0--0--0----|--5--5--5--5--5--5--5--5--5--5--5--5--5--5--5--5----|----------------------------------------------------|----------------------------------------------------|----------------------------------------------------|----------------------------------------------------|
--0--0--0--0--0--0--0--0--0--0--0--0--0--0--0--0----|--5--5--5--5--5--5--5--5--5--5--5--5--5--5--5--5----|----------------------------------------------------|----------------------------------------------------|----------------------------------------------------|----------------------------------------------------|
--0--0--0--0--0--0--0--0--0--0--0--0--0--0--0--0----|--5--5--5--5--5--5--5--5--5--5--5--5--5--5--5--5----|----------------------------------------------------|----------------------------------------------------|----------------------------------------------------|----------------------------------------------------|
--0--0--0--0--0--0--0--0--0--0--0--0--0--0--0--0----|--5--5--5--5--5--5--5--5--5--5--5--5--5--5--5--5----|----------------------------------------------------|----------------------------------------------------|----------------------------------------------------|----------------------------------------------------|
----------------------------------------------------|----------------------------------------------------|----------------------------------------------------|----------------------------------------------------|----------------------------------------------------|----------------------------------------------------|
----------------------------------------------------|----------------------------------------------------|----------------------------------------------------|----------------------------------------------------|--8s----5-------------------------------------------|--6s----3-----3M-3M-3M-3M-3M-3M-3M-3M-3M-3M-3M-3M---|
----------------------------------------------------|----------------------------------------------------|----------------------------------------------------|----------------------------------------------------|--8s----5-----------------10-10-10-10-7--7--7--7----|--6s----3-----3M-3M-3M-3M-8--8--8--8--5--5--5--5----|
----------------------------------------------------|----------------------------------------------------|----------------------------------------------------|----------------------------------------------------|--8s----5-------------------------------------------|--6s----3-----3M-3M-3M-3M-3M-3M-3M-3M-3M-3M-3M-3M---|
----------------------------------------------------|----------------------------------------------------|----------------------------------------------------|----------------------------------------------------|--8s----5-----------------7--7--7--7--10-10-10-10---|--6s----3-----3M-3M-3M-3M-5--5--5--5--8--8--8--8----|
----------------------------------------------------|----------------------------------------------------|----------------------------------------------------|----------------------------------------------------|--11s---8-------------------------------------------|--9s----6-----6M-6M-6M-6M-6M-6M-6M-6M-6M-6M-6M-6M---|
----------------------------------------------------|----------------------------------------------------|----------------------------------------------------|----------------------------------------------------|--11s---8-----------------12-12-12-12-10-10-10-10---|--9s----6-----6M-6M-6M-6M-10-10-10-10-8--8--8--8----|
----------------------------------------------------|----------------------------------------------------|----------------------------------------------------|----------------------------------------------------|--11s---8-------------------------------------------|--9s----6-----6M-6M-6M-6M-6M-6M-6M-6M-6M-6M-6M-6M---|
----------------------------------------------------|----------------------------------------------------|----------------------------------------------------|----------------------------------------------------|--11s---8-----------------10-10-10-10-12-12-12-12---|--9s----6-----6M-6M-6M-6M-8--8--8--8--10-10-10-10---|
----------------------------------------------------|----------------------------------------------------|----------------------------------------------------|----------------------------------------------------|----------------------------------------------------|----------------------------------------------------|
----------------------------|-----6--6-----6--6-----5----|-----7--7-----7--7-----6~---|-----7--7-----7--7-----6~---|-----5--5-----5--5-----4~---|--0M-------0M-------0>------|
----------------------------------------------------|--------6-----6-----------8--8--8--8--5--5--5--5----|--------7-----7-----------9--9--9--9--6--6--6--6----|--------7-----7-----------9--9--9--9--6--6--6--6----|--------5-----5-----------7--7--7--7--4--4--4--4----|--0M----------------0M------------------------------|
----------------------------|-----6--6-----6--6-----5~---|-----7--7-----7--7-----6~---|-----7--7-----7--7-----6~---|-----5--5-----5--5-----4~---|--0M-------0M-------0>------|
----------------------------------------------------|--------6-----6-----------3--3--3--3--5--5--5--5----|--------7-----7-----------3--3--3--3--6--6--6--6----|--------7-----7-----------3--3--3--3--6--6--6--6----|--------5-----5-----------1--1--1--1--4--4--4--4----|--0M----------------0M------------------------------|
----------------------------|-----6--6-----6--6-----5----|-----7--7-----7--7-----6~---|-----7--7-----7--7-----6~---|-----5--5-----5--5-----4~---|--0M-------0M-------0>------|
----------------------------------------------------|--------6-----6-----------8--8--8--8--5--5--5--5----|--------7-----7-----------9--9--9--9--6--6--6--6----|--------7-----7-----------9--9--9--9--6--6--6--6----|--------5-----5-----------7--7--7--7--4--4--4--4----|--0M----------------0M------------------------------|
----------------------------|-----6--6-----6--6-----5~---|-----7--7-----7--7-----6~---|-----7--7-----7--7-----6~---|-----5--5-----5--5-----4~---|--0M-------0M-------0>------|
----------------------------------------------------|--------6-----6-----------3--3--3--3--5--5--5--5----|--------7-----7-----------3--3--3--3--6--6--6--6----|--------7-----7-----------3--3--3--3--6--6--6--6----|--------5-----5-----------1--1--1--1--4--4--4--4----|--0M----------------0M------------------------------|
----------------------------------------------------||----------------------------------------------------||----------------------------------------------------||----------------------------------------------------||----------------------------------------------------||----------------------------------------------------||
Solo Section (it's only been one day, no solos for you)---------------------------------------------------|---------------------------------------------------|o--------------------------------------------------|o--------------------------------------------------|-8--------7-----5-----------------------------4----|----0M-0M----0M----8--0M-0M-0M-0M-0M-0--3--7-------|
----------------------------------------------------|----------------------------------------------------|----------------------------------------------------|----------------------------------------------------|--8--------7-----5--------------7--8--------8--10---|-----0M-0M----0M----8--5M-5--5--------7--7----------|
----------------------------------------------------|----------------------------------------------------|----------------------------------------------------|----------------------------------------------------|--8--------7-----5-----------------------------4----|-----0M-0M----0M----8--0M-0M-0M-0M-0M-0--3--7-------|
= = =---------------------------------------------------||-------|-------|-------|---------------------------------------------------||-------|-------|-------|--------------------------------------------------o||-------|-------|-------|--------------------------------------------------o||-------|-------|-------|--------------------------4--0--4--5--8--7--5--0---||-------|-------|-------|--8--8--8--8--8--8--8--8---------------------------||--3----|--3----|--2----|
Black Metal Section = = = = = = = = = = =-------|-------|-------|----------|----------|-------|-------|-------|-------|-------|-------|-------|----------|----------|-------|-------|-------|-------|-------|-------|-------|----------|----------|-------|-------|-------|-------|-------|-------|-------|----------|----------|-------|-------|-------|-------|-------|-------|-------|----------|-----4----|-------|-------|-------|-------|--2----|--5----|--5----|--3--7----|--8-------|--3----|--3----|--2----|--2----|
= = = = = =-------|-------|----------|----------|-------|-------|----------|----------|-------|-------|----------|----------|-------|-------|----------|----------|-------|-------|----------|-----4----|--5----|--5----|--3--7----|--8-------|Guitar B
---------------|----------------|----------------|---------------||-------|---------------|----------------|----------------|---------------||-------|o--------------|----------------|----------------|--------------o||-------|o--------------|----------------|----------------|--------------o||--6----|---------------|----------------|----------------|---------------||-------|---------------|----------------|----------------|---------------||-------|
= = = = = = = = = = = = =----------|-------|----------|-------|----------|----------|----------|-------|----------|-------|----------|-------|----------|----------|----------|-------|----------|-------|----------|--2----|--1-------|--1--5----|--6--8----|-------|--4--2----|--4----|--2--1----|-------|-----4----|----------|----------|--6----|----------|-------|----------|-------|----------|----------|----------|-------|----------|-------|----------|-------|----------|----------|----------|-------|
= = = = = = = = = = = =----------|-------|----------|-------|----------|----------|----------|----------|-------|----------|-------|----------|----------|----------|----------|-------|----------|--2----|--1-------|--1--5----|--6--8----|--4--2----|--4----|--2--1----|-------|-----4----|----------|----------|----------|-------|----------|-------|----------|----------|----------|----------|-------|----------|-------|----------|----------|----------|
Melody in second part of Black metal section, after halfway it's really hard to hear, sorry-------------------------------|-----------------------------------|--3-----------3---------------|--3-------------3-------------------|-----2--3--2-----2--3--2----|-----0--3--0--------2-----------------|--0-----------0---------------|--0-------------0--3-----3----------|-------------------------------|-----------------------------------|-------------------------------|-----------------------------------|
-------------------------------|------------------------------|--2-----------2---------------|--2-----------2----------------|-----0--3--0-----0--3--0----|--------2-----------0------------|-------------------------------|-----3-----3-----2-----2------|--4-----------4---------------|--4-----------4----------------|-------------------------------|------------------------------|
----------------------------------------------------|--------------------------------------5~------------|--------------------------------------6~------------|--------------------------------------6~------------|--------------------------------------4~------------|--0--------------------------------0----------------|
----------------------------------------------------|--------6-----6-----------8--8--8--8--5--5--5--5----|--------7-----7-----------9--9--9--9--6--6--6--6----|--------7-----7-----------9--9--9--9--6--6--6--6----|--------5-----5-----------7--7--7--7--4--4--4--4----|--0M----------------0M------------------------------|
----------------------------|-----6--6-----6--6-----5~---|-----7--7-----7--7-----6~---|-----7--7-----7--7-----6~---|-----5--5-----5--5-----4~---|--0M-------0M-------0>------|
----------------------------------------------------|--------6-----6-----------3--3--3--3--5--5--5--5----|--------7-----7-----------3--3--3--3--6--6--6--6----|--------7-----7-----------3--3--3--3--6--6--6--6----|--------5-----5-----------1--1--1--1--4--4--4--4----|--0M----------------0M------------------------------|
----------------------------|-----6--6-----6--6-----5----|-----7--7-----7--7-----6~---|-----7--7-----7--7-----6~---|-----5--5-----5--5-----4~---|--0M-------0M-------0>------|
----------------------------------------------------|--------6-----6-----------8--8--8--8--5--5--5--5----|--------7-----7-----------9--9--9--9--6--6--6--6----|--------7-----7-----------9--9--9--9--6--6--6--6----|--------5-----5-----------7--7--7--7--4--4--4--4----|--0M----------------0M------------------------------|
----------------------------|-----6--6-----6--6-----5~---|-----7--7-----7--7-----6~---|-----7--7-----7--7-----6~---|-----5--5-----5--5-----4~---|--0M-------0M-------0>------|
----------------------------------------------------|--------6-----6-----------3--3--3--3--5--5--5--5----|--------7-----7-----------3--3--3--3--6--6--6--6----|--------7-----7-----------3--3--3--3--6--6--6--6----|--------5-----5-----------1--1--1--1--4--4--4--4----|--0M----------------0M------------------------------|
----------------------------|-----6--6-----6--6-----5----|-----7--7-----7--7-----6~---|-----7--7-----7--7-----6~---|-----5--5-----5--5-----4~---|--0M-------0M-------0>------|
----------------------------------------------------|--------6-----6-----------8--8--8--8--5--5--5--5----|--------7-----7-----------9--9--9--9--6--6--6--6----|--------7-----7-----------9--9--9--9--6--6--6--6----|--------5-----5-----------7--7--7--7--4--4--4--4----|--0M----------------0M------------------------------|
----------------------------|-----6--6-----6--6-----5~---|-----7--7-----7--7-----6~---|-----7--7-----7--7-----6~---|-----5--5-----5--5-----4~---|--0M-------0M-------0>------|
----------------------------------------------------|--------6-----6-----------3--3--3--3--5--5--5--5----|--------7-----7-----------3--3--3--3--6--6--6--6----|--------7-----7-----------3--3--3--3--6--6--6--6----|--------5-----5-----------1--1--1--1--4--4--4--4----|--0M----------------0M------------------------------|
----------------------------|-----6--6-----6--6-----5----|-----7--7-----7--7-----6~---|-----7--7-----7--7-----6~---|-----5--5-----5--5-----4~---|--0M-------0M-------0>------|
----------------------------------------------------|--------6-----6-----------8--8--8--8--5--5--5--5----|--------7-----7-----------9--9--9--9--6--6--6--6----|--------7-----7-----------9--9--9--9--6--6--6--6----|--------5-----5-----------7--7--7--7--4--4--4--4----|--0M----------------0M------------------------------|
----------------------------|-----6--6-----6--6-----5~---|-----7--7-----7--7-----6~---|-----7--7-----7--7-----6~---|-----5--5-----5--5-----4~---|--0M-------0M-------0>------|
----------------------------------------------------|--------6-----6-----------3--3--3--3--5--5--5--5----|--------7-----7-----------3--3--3--3--6--6--6--6----|--------7-----7-----------3--3--3--3--6--6--6--6----|--------5-----5-----------1--1--1--1--4--4--4--4----|--0M----------------0M------------------------------|
----------------------------------------------------|----------------------------------------------------|----------------------------------------------------|----------------------------------------------------|----------------------------------------------------|----------------------------------------------------|
----------------------------||----------------------------||----------------------------||----------------------------||--0-----0-----0-------------||--0-----0-----0-------------||
Tap to rate this tab
 
# A B C D E F G H I J K L M N O P Q R S T U V W X Y Z