Trivium - Like Light To Flies tab

Tuning (DADGBE) Drop D


Solo 1

|-----------------------|--------------------|-------------------------10-||-----------------------|--------------------|----------------10-11-13----||-----------------------|-------------7-10-9-|-(9)-7-9-10-9---------------||-----------------------|--------------------|----------------------------||-5---7-8-7-(7)-(7)-(7)-|-(7)-5-7-8-7--------|----------------------------||-----------------------|--------------------|----------------------------|
|-12-13-12-10---------------------------------------||-------------13-11-10-------------------10---------||----------------------12-14-12-10-12-12----12-12---||---------------------------------------------------||---------------------------------------------------||---------------------------------------------------|
|-------------------------|------------------------||-------------------------|------------------------||-15-15-15-15-15-15-14-14-|-(14)-----------(14)-14-||-------------------------|------------------------||-------------------------|------------------------||-------------------------|------------------------|
|-17------17----17------15-------|-12-13-12-10-----------------------------------||--------------------------------|-------------13-11-10----------------10--------||----14------14------14----------|----------------------12-14-15-14-12----12-12--||--------------------------------|-----------------------------------------------||--------------------------------|-----------------------------------------------||--------------------------------|-----------------------------------------------|
|--------------------------------|--------------------------------||--------------------------------|--------------------------------||--------------------------------|--------------------------------||-12-(12)-13-12-10-12-(12)-------|-14-(14)-15-14-12-14-(14)-------||--------------------------------|--------------------------------||--------------------------------|--------------------------------|
|-------------------------------------------|-----------------------------||-------------------------------------------|-----------------------------||-12-(12)-14---(14)-15-14-(14)-15---(15)-17-|-15-15-14-12-14-15-14---(14)-||-------------------------------------------|-----------------------------||-------------------------------------------|-----------------------------||-------------------------------------------|-----------------------------|
|-17-17-15-13----------13-17-13-|-15-15-13-12----------12-15-12-||-------------15----15----------|-------------14----14----------||----------------14-------------|----------------15-------------||-------------------------------|-------------------------------||-------------------------------|-------------------------------||-------------------------------|-------------------------------|
|-18-18-17-15----------15-18-15-|-20-18-17----18-17-------17-----------------------||-------------18----17----------|----------20-------20-18----20-18-17-20-18-17-----||----------------19-------------|----------------------------------------------19--||-------------------------------|--------------------------------------------------||-------------------------------|--------------------------------------------------||-------------------------------|--------------------------------------------------|
Harmonised Solo Dm/A Gtr I
|-20b22----------------------|---------------------------------||-15-------------------------|-(15)----15-17-18-17-18-17-15-17-||----------------------------|------14-------------------------||----------------------------|---------------------------------||----------------------------|---------------------------------||----------------------------|---------------------------------|
| | Gtr II | |
|----------------------------|---------------------------------||----------------------------|---------------------------------||----------------------------|---------------------------------||-12-------------------------|-(12)----12-14-15-14-15-14-12-14-||----------------------------|------12-------------------------||----------------------------|---------------------------------|
| Q E E +E +E +E +E +E E E E E E E +E|-------15-15-(15)-(15)-(15)-(15)-|-(15)-22-22-18-18-20-20-(20)---||-18------------------------------|-------------------------------||---------------------------------|-------------------------------||---------------------------------|-------------------------------||---------------------------------|-------------------------------||---------------------------------|-------------------------------|
|
| Q E E +E +E +E +E +E E E E E E E +E|---------------------------------|-------------------------------||---------------------------------|-------------------------------||-------12-12-(12)-(12)-(12)-(12)-|-(12)-19-19-15-15-17-17-(17)---||-15------------------------------|-------------------------------||---------------------------------|-------------------------------||---------------------------------|-------------------------------|
Gtr I
|-------------------------|---------------------------------||-15----------------------|-(15)----15-17-18-17-18-17-15-17-||-------------------------|------14-------------------------||-------------------------|---------------------------------||-------------------------|---------------------------------||-------------------------|---------------------------------|
| | Gtr II | |
|-------------------------|---------------------------------||-------------------------|---------------------------------||-------------------------|---------------------------------||-12----------------------|-(12)----12-14-15-14-15-14-12-14-||-------------------------|------12-------------------------||-------------------------|---------------------------------|
|
|-------15-15-(15)-17-(17)-18-|-18-20-20-22-22-(22)-(22)-(22)---||-18--------------------------|---------------------------------||-----------------------------|---------------------------------||-----------------------------|---------------------------------||-----------------------------|---------------------------------||-----------------------------|---------------------------------|
|
|-----------------------------|---------------------------------||-----------------------------|---------------------------------||-------12-12-(12)-14-(14)-15-|-15-17-17-19-19-(19)-(19)-(19)---||-15--------------------------|---------------------------------||-----------------------------|---------------------------------||-----------------------------|---------------------------------|
Solo 2
|---------------------------------------------||---------------------------------------------||------------------------------------------12-||-14-(14)-15-(15)-14-15-14-12-(12)-15-(15)----||---------------------------------------------||---------------------------------------------|
|-------------13-----------|----------------------------13-15-||-13b15--(13)----15--(15)--|----------------------13-15-------||--------------------------|-------------12-14-15-------------||--------------------------|----12-14-15----------------------||--------------------------|-15-------------------------------||--------------------------|----------------------------------|
|-17--(17)-17b18-15-(15)-(15)-(15)-|-17-15-17-15-------------15-17-||----------------------------------|-------------18-15-17-18-------||----------------------------------|-------------------------------||----------------------------------|-------------------------------||----------------------------------|-------------------------------||----------------------------------|-------------------------------|
|-20--(20)-20b21-17-(17)-(17)-(17)--||-----------------------------------||-----------------------------------||-----------------------------------||-----------------------------------||-----------------------------------|
|-18-17-18-17----17-------------|--------------------------||-------------18----18-17-15----|---------15-(15)-18-15----||----------------------------14-|-17-(17)------------------||-------------------------------|--------------------------||-------------------------------|--------------------------||-------------------------------|--------------------------|
|---------------------------------------------------||-13-15-13-10-13-15-13-10-13-15-13-10-13-15-13-10---||---------------------------------------------------||---------------------------------------------------||---------------------------------------------------||---------------------------------------------------|
|-------10-10-------10---10-------10---10-------10---10-||-13b15-------13b15---------13b15---------13b15---------||-------------------------------------------------------||-------------------------------------------------------||-------------------------------------------------------||-------------------------------------------------------|
|-12-------------13------------------||-15b17----------16b18---------------||------------------------------------||------------------------------------||------------------------------------||------------------------------------|
|-15----------------17--------(17)\-------||-18b20-------------20b22-----(22)\-------||-----------------------------------------||-----------------------------------------||-----------------------------------------||-----------------------------------------|
|-20-17----------17-20-17----------18-18-------||-------18----18----------18----18-------------||----------19----------------19----------------||----------------------------------------------||----------------------------------------------||----------------------------------------------|
|-20-17----------17-20-17----------------------||-------18----18----------18----18-20-20-------||----------19----------------19----------------||----------------------------------------------||----------------------------------------------||----------------------------------------------|
|-20-17----------17-20-17----------17-17-------|-20b22-(20)-20---(20)-17---22b24---------------||-------18----18----------18----18-------------|-----------------------------------------------||----------19----------------19----------------|-----------------------------------------------||----------------------------------------------|-----------------------------------------------||----------------------------------------------|-----------------------------------------------||----------------------------------------------|-----------------------------------------------|
Tap to rate this tab
 
# A B C D E F G H I J K L M N O P Q R S T U V W X Y Z