Ulli Boegershausen - Right Here Waiting tab version 2



Title: Right Here Waiting

Artist: Ulli Boegershausen

Arranged by: Ulli Boegershausen

Tabbed by: Ryan R. Gonzales

Location: Rosario, Batangas - Philippines

Tuning: e B G D A E (Standard Tuning)


Intro:

^ ^ ^ ^ ^ ^e ||--------|--3~----|--------|--3~----|--8---7~--|--5~---------|B ||--------|--3~----|--------|--3~----|--5~------|--5------8~--|G ||--2~----|--0~----|--2~----|--0~----|--5~------|--5~---------|D ||--2~----|--2~----|--2~----|--------|----------|------5~-----|A ||--------|--3~----|--3~----|--2~----|--8~------|--5~---------|E ||--1~----|--------|--1~----|--------|----------|-------------|
--------------3--3--1-p-0----|----------------0--1--0--|---------------------------3-|----------3--3-----------|-----------0-----------------|-------0-----------------|--------2--------------------|----0--------------------|--0--3-----------------------|-2-----------------------|-----------------------------|-------------------------|
-----------------0-|-------------------------|--------1--1--3----|----3-----1--p--0--------|-------------------|-------0-----------2--0--|-----2-------------|-------------------------|--0----------------|-------------------------|-------------------|-1-----------3-----------|
-----------3--3--1-p-0----|----------------0--1--0-|------------------------3-|----------3--3----------|--------0-----------------|-------0----------------|-----2--------------------|----0-------------------|--3-----------------------|-2----------------------|--------------------------|------------------------|
-------------0--0-h-1-|----0---------------------|-------1--3-----------|----------3-----1-p-0--1--|----------------------|-------0------------------|----2-----------------|--------------------------|-0--------------------|--------------------------|----------------------|-1-----------3------------|
-------------------|-----------------|-----------0--1----|----------0--1~--|--------2----------|-------2---------|-----2-------------|----2------------|--0----------------|-0---------------|-----------------0-|-----------------|
Verse:
-------------------------|----0--------0-----------|-----------------1--3--3-|----------------3--1--3--|--------0-----0----------|-------------------------|-----2-------------------|-------0-----------------|--3--------3-------------|-------------------------|-------------------------|-1--------1--------------|
^------------------------|-----------------------------|-----1----------------0-|-1-----3--0------------------|--------2~---------2----|-2-----------------0-h-2--0--|--0------------0~-------|----0-----------0------------|------------0-----------|-----------------------------|------------------------|-3-----------3---------------|
-------------------------|----0--------1-p-0--------|-----------------1--3--3-|--------------------1--3--|--------0-----0----------|--------------------------|-----2-------------------|-------0------------------|--3--------3-------------|--------------------------|-------------------------|-1--------1---------------|
^------------------------|-------------------------|-----1----------------0-|-1-----3--0--------1--1--|--------2~---------2----|-2--------0-----------0--|--0------------0~-------|----0-----------0--------|------------0-----------|-------------------------|------------------------|-3-----------3-----------|
Refrain:
|--------|---------------------0--1-|-----0-----------------------|--------------1-h-3-----1-|--------1-----3--------------|--------0---------------2-|-----------------------------|-----2--------------------|-0~--------------------0-----|--0--------0--------------|--------------------2-----2--|--------------------------|-----------1-----3-----------|
|---------|---------------------0--1-|-------0------------------------|--------------1-h-3-----1-|----------1-----1---------------|--------0---------------2-|-----------------------------0--|-----2--------------------|----0---------------------0-----|--0--------0--------------|-------------------0-h-2--------|--------------------------|-3-----------1------------------|
Chorus:
------------3--3--1--0----|----------------0--1--0--|------------1--1--1--1--3-|----------3--3-----------|---------0--0--0--0--0--0-|-------0--0--0-----------|------2-------------------|----0--------------------|---3----------------------|-2-----------------------|--------------------------|-------------------------|
------------------0-|-------------------------|--------1--1-h-3----|----3-----1--p--0--------|--------0--0--------|-------0-----------2--0--|-----2--------------|-------------------------|--0-----------------|-------------------------|--------------------|-1-----------3-----------|
------------3--3--1--0----|------------------0---1---0--|------------1--1--1--1--3-|----------3---3--------------|---------0--0--0--0--0--0-|-------0----0---0---0---0----|------2-------------------|----0------------------------|---3----------------------|-2---------------------------|--------------------------|-----------------------------|
---------------0--0-h-1-|----0---------------------|--------1-h-3-----------|----------3-----1-p-0--1--|--------0---------------|-------0------------------|-----2------------------|--------------------------|--0---------------------|--------------------------|------------------------|-1-----------3------------|
Interlude:
-------------------|-----------------|-----------0--1----|----------0--1~--|--------2----------|-------2---------|-----2-------------|----2------------|--0----------------|-0---------------|-----------------0-|-----------------|
Verse:
----------------------------|----0--------0-----------|--------------------1--3--3-|----------------3--1--3--|-----------0-----0----------|-------------------------|--------2-------------------|-------0-----------------|--0--3--------3-------------|-------------------------|----------------------------|-1--------1--------------|
^------------------------|-----------------------------|-----1----------------0-|-1-----3--0------------------|--------2~---------2----|-2-----------------0-h-2--0--|--0------------0~-------|----0-----------0------------|------------0-----------|-----------------------------|------------------------|-3-----------3---------------|
-------------------------|----0--------1-p-0--------|-----------------1--3--3-|--------------------1--3--|--------0-----0----------|--------------------------|-----2-------------------|-------0------------------|--3--------3-------------|--------------------------|-------------------------|-1--------1---------------|
^------------------------|-------------------------|-----1----------------0-|-1-----3--0--------1--1--|--------2~---------2----|-2--------0-----------0--|--0------------0~-------|----0-----------0--------|------------0-----------|-------------------------|------------------------|-3-----------3-----------|
Refrain:
|--------|---------------------0--1-|-----0-----------------------|--------------1-h-3-----1-|--------1-----3--------------|--------0-----0---------2-|-----------------------------|-----2--------------------|-0~--------------------0-----|--0--------0--------------|--------------------2-----2--|--------------------------|-----------1-----3-----------|
|---------|---------------------0--1-|-------0------------------------|--------------1-h-3-----1-|----------1-----1---------------|--------0-----0---------2-|-----------------------------0--|-----2--------------------|----0---------------------0-----|--0--------0--------------|-------------------0-h-2--------|--------------------------|-3-----------1------------------|
Chorus:
------------3--3--1--0----|----------------0--1--0--|------------1--1--1--1--3-|----------3--3-----------|---------0--0--0--0--0--0-|-------0--0--0-----------|------2-------------------|----0--------------------|---3----------------------|-2-----------------------|--------------------------|-------------------------|
------------------0-|-------------------------|--------1--1-h-3----|----3-----1--p--0--------|--------0--0--------|-------0-----------2--0--|-----2--------------|-------------------------|--0-----------------|-------------------------|--------------------|-1-----------3-----------|
------------3--3--1--0----|------------------0---1---0--|------------1--1--1--1--3-|----------3---3--------------|---------0--0--0--0--0--0-|-------0----0---0---0---0----|------2-------------------|----0------------------------|---3----------------------|-2---------------------------|--------------------------|-----------------------------|
---------------0--0-h-1-|----0---------------------|--------1-h-3-----------|----------3-----1-p-0--1--|--------0---------------|-------0------------------|-----2------------------|--------------------------|--0---------------------|--------------------------|------------------------|-1-----------3------------|
Bridge:
^-----------------|-0-----1--0--------------|--1--1-----1-h-3-|-0-----------------------|--------0--0-----|-0-----------------0--2--|--3--3-----------|-2--2-----------2--------|-----------------|-3-----------3-----------|--1--1-----3-----|-------------------------|
---------------------------|-------------------------|--------------|---------------1--1-h-3--1-|-------------------------|-------1------|---------------2--2------2-|-------------------------|----2---------|--------3------------------|-------3-----------2-----|-0------------|-----3---------------------|----3-----3-----3-----3--|----------0~--|--1--------1~--------------|-1-----------0-----------|--------------|
^-----------|-0-----1--0--------------|-------------------3--3-|-------------------------|-----1-h-3-|-0-----------------------|-------1--1--------1--1-|-------------1-----0-----|--0--0-----|-0-----------------0--2--|-------2--2--------2--2-|-------2-----2-----0-----|-----------|-2--2-----------2--------|----0-------------------|----0-----------0-----0--|-----------|-3-----------3-----------|----------------0-------|-------------------------|-----3-----|-------------------------|-1-----------1----------|-3--------3--------------|
Interlude:
------------3--3--1--0----|----------------0-h-1--0--|------------1--1--1--1--3-|----------3--3------------|---------0--0--0--0--0--0-|-------0--0--0------------|------2-------------------|----0---------------------|---3----------------------|-2------------------------|--------------------------|--------------------------|
------------------0-|-------------------------|--------1--1-h-3----|----3-----1--p--0--------|--------0--0--------|-------0-----------2--0--|-----2--------------|-------------------------|--0-----------------|-------------------------|--------------------|-1-----------3-----------|
------------3--3--1--0----|----------------0--1--0--|------------1--1--1--1--3-|----------3--3-----------|---------0--0--0--0--0--0-|-------0--0--0-----------|------2-------------------|----0--------------------|---3----------------------|-2-----------------------|--------------------------|-------------------------|
---------------0--0-h-1-|----0---------------------|--------1-h-3-----------|----------3-----1-p-0--1--|--------0---------------|-------0------------------|-----2------------------|--------------------------|--0---------------------|--------------------------|------------------------|-1-----------3------------|
Refrain:
|--------|---------------------0--1-|-----0-----------------------|--------------1-h-3-----1-|--------1-----3--------------|--------0-----0---------2-|-----------------------------|-----2--------------------|-0~--------------------0-----|--0--------0--------------|--------------------2-----2--|--------------------------|-----------1-----3-----------|
|---------|---------------------0--1-|-------0------------------------|--------------1-h-3-----1-|----------1-----1---------------|--------0-----0---------2-|-----------------------------0--|-----2--------------------|----0---------------------0-----|--0--------0--------------|-------------------0-h-2--------|--------------------------|-3-----------1------------------|
Chorus:
------------3--3--1--0----|----------------0--1--0--|------------1--1--1--1--3-|----------3--3-----------|---------0--0--0--0--0--0-|-------0--0--0-----------|------2-------------------|----0--------------------|---3----------------------|-2-----------------------|--------------------------|-------------------------|
------------------0-|-------------------------|--------1--1-h-3----|----3-----1--p--0--------|--------0--0--------|-------0-----------2--0--|-----2--------------|-------------------------|--0-----------------|-------------------------|--------------------|-1-----------3-----------|
------------3--3--1--0----|------------------0---1---0--|------------1--1--1--1--3-|----------3---3--------------|---------0--0--0--0--0--0-|-------0----0---0---0---0----|------2-------------------|----0------------------------|---3----------------------|-2---------------------------|--------------------------|-----------------------------|
---------------0--0-h-1-|----0---------------------|--------1-h-3-----------|----------3-----1-p-0--1--|--------0---------------|-------0------------------|-----2------------------|--------------------------|--0---------------------|--------------------------|------------------------|-1-----------3------------|
---------------|---------------|--------0------|-----2---------|--3--------3~--|---------------|
Tablature Legend ---------------- h - hammer on p - pull off ~ - let the note ring ^ - pluck the strings smoothly from top to bottom echo "Hello World!"; for - Charlene Mae - Play until your fingers bleed!
Tap to rate this tab
 
# A B C D E F G H I J K L M N O P Q R S T U V W X Y Z