Ulli Boegershausen - Right Here Waiting tab

Standard tuning


Richard Marx Right here waiting Ulli Boegershausenintro|-------|-3-----|-------|-3----|-8---7--|-5----------||-------|-3-----|-------|-3----|-5------|-5----8-----||-2-----|-0-----|-2-----|-0----|-5------|-5----------||-2-----|-2-----|-2-----|------|--------|------------||-------|-3-----|-3-----|-2----|-8------|-5--------0-||-1-----|-------|-1-----|------|--------|------------|
Chorus (LET EVERYTHING RING FROM HERE) |-----------3--3--1--0-------|-----------------0--1--0---------||-----------------------3----|-----------3--3------------------||--------0-------------------|--------0------------------------||-----2----------------------|-----0---------------------------||--3-------------------------|--2------------------------------||----------------------~-----|---------------------------------|
|-----------------------0----|---------------------------------||-----------1-1----3---------|----3-----1-----0----------------||-------------0--------------|-------0-----------2--0----------||------2---------------------|---------------------------------||---0------------------------|---------------------------------||----------------------~-----|--1----------3-------------------|
|-----------3--3--1--0-------|-----------------0--1--0---------||-----------------------3----|-----------3--3------------------||--------0-------------------|--------0------------------------||-----2----------------------|-----0---------------------------||--3-------------------------|--2------------------------------||----------------------~-----|---------------------------------|
|----------------0----oh1----|----0----------------------------||--------1---3---------------|----------3-----1--0--1----------||------------0---------------|-------0-------------------------||-----2----------------------|---------------------------------||--0-------------------------|---------------------------------||----------------------~-----|--1----------3-------------------|
Verse 1|----------------------------|---------------------------------||-----------0---1------------|-----------------1--3--3---------||--------2-------------------|--------0-----0------------------||-----2----------------------|-----2---------------------------||--0-------------------------|--3--------3---------------------||----------------------~-----|---------------------------------|
|-----0--------0-------------|---------------------------------||-----------------3--1--3----|-----1---------------0-----------||----------------------------|-------2----------2--------------||--------0-------------------|--0------------0-----------------||----------------------------|------------0--------------------||--1--------1----------------|---------------------------------|
|----------------------------|---------------------------------||--1-----3--0----------------|-----------------1--3--3---------||--2--------------2--0h2p0---|--------0-----0------------------||-----0--------0-------------|-----2---------------------------||----------------------------|--3--------3---------------------||--3--------------------~----|---------------------------------|
|-----0--------0-------------|---------------------------------||-----------------3--1--3----|-----1---------------0-----------||----------------------------|-------2----------2--------------||--------0-------------------|--0------------0-----------------||----------------------------|------------0--------------------||--1--------1----------------|---------------------------------|
Interlude|----------------------------|--------------------0--1---------||--1-----3--0-------1--1-----|--------------1h3----------------||--2--------0----------0-----|--------0-----0------------------||---------------0------------|-----2---------------------------||-----0----------------------|--0--------0---------------------||--3-------------------------|---------------------------------|
|--------0-------------------|--------------------0--1---------||-----------1-----3----------|--------------1h3----------------||-----0----------------------|--------0-----0------------------||------------------------0---|-----2---------------------------||----------------------2---2-|--0--------0---------------------||--1-----------0-----3-------|---------------------------------|
Chorus|--------0-------------------|-----------3--3--3--1--0---------||-----------1-----1----------|-----------1--1--1--1--1--3------||--------------------------0-|--------0------------------------||-----0------------------0---|-----2---------------------------||--------------------0-2-----|--3------------------------------||--3-----------1-------------|---------------------------------|
|-----------------0----------|---------------------------------||--------1--1--3-------------|-----3-----1-----0---------------||-----------0----------------|--------0-----------2--0---------||-----2----------------------|---------------------------------||--0-------------------------|---------------------------------||----------------------~-----|--1-----------3------------------|
|-----------3--3--1--0-------|-----------------0--1--0---------||-----------1--1--1--1--3----|-----------3--3------------------||--------0-------------------|--------0--0--0------------------||-----2----------------------|-----0---------------------------||--3-------------------------|---------------------------------||----------------------~-----|--3------------------------------|
|---------------0-oh1--------|-----0---------------------------||--------1--3----------------|-----------3-----1--0--1---------||-----------0----------------|--------0------------------------||-----2----------------------|---------------------------------||--0-------------------------|---------------------------------||----------------------~-----|--1-----------3------------------|
|----------------------------|---------------------------------||-----------0----1-----------|-----------0--1------------------||--------2-------------------|--------2------------------------||-----2----------------------|-----2---------------------------||--0-------------------------|--0--------------0---------------||-------------------0--------|---------------------------------|
Verse 2|----------------------------|-----0--------0------------------||-----------------1--3--3----|-----------------3--1--3---------||--------0-----0-------------|---------------------------------||-----2----------------------|--------0------------------------||--3--------3----------------|---------------------------------||----------------------------|--1--------1---------------------|
|----------------------------|---------------------------------||----------------------0-----|--1-----3--0---------------------||-----1-------------2--------|--2------------2--0h2-0----------||------2-------0-------------|-----0------0--------------------||--0--------0----------------|---------------------------------||----------------------------|--3------------------------------|
|----------------------------|-----0--------1--0---------------||-----------------1--3--3----|--------------------1--3---------||--------0-----0-------------|---------------------------------||-----2----------------------|--------0------------------------||--3--------3----------------|---------------------------------||----------------------------|--1--------1---------------------|
|----------------------------|---------------------------------||-----1-----------------0----|--1-----3--0--------1--1---------||-------2------------2-------|--2--------0-----------0---------||--0------------0------------|-----0-----------0---------------||------------0---------------|---------------------------------||----------------------------|--3-----------3------------------|
Repeat Interlude and Chorus
Break|----------------------------|--0----1--0----------------------||------r----------1--3-------|--0------------------------------||------e-------0--0----------|--0----------------0--2----------||--3---s---3-----------------|--2-------------2----------------||--3---t---3-----------------|--3----------3-------------------||--1-------1------3----------|---------------------------------|
|----------------------------|---------------------------------||-----------------1--1h3--1--|---------------------------------||-----------2-----2--2----2--|---------------------------------||--------3-------------------|--------3-----------2------------||-----3----------------------|-----3-----3-----3-----3---------||--1-----------1-------------|--1-----------0------------------|
|----------------------------|--0-----1--0---------------------||--------1---------1--3------|--0------------------------------||-----2--------0-------------|--0--0--------------0--2---------||--0-------------------------|--2--------------2---------------||-----------0----------------|--3-----------3------------------||------------------3---------|---------------------------------|
|---------------------3--3---|---------------------------------||---------1--1--------1--1---|--------------1-----0------------||---------0--0--------2--2---|--------0-----2-----0------------||------0---------------------|-----0-----------0-----0---------||------------------0---------|---------------------------------||--1------------1------------|--3--------3---------------------|
Chorus then Interlude then Chorus. But end with the measure right after the hammer on. This is a neat song to play. Just listen to the song to follow along. your welcome. (: it is 1:56 am. Order: Intro Chorus Verse 1 Interlude Chorus Verse 2 Interlude Chorus Break Chorus Interlude Chorus
Tap to rate this tab
 
# A B C D E F G H I J K L M N O P Q R S T U V W X Y Z