Ulli Bogershausen - Hit The Road Jack tab version 1

Hit the Road Jack - Ulli Bögershausen

Tuning: (standard) EADGBE

Its not done yet but i got most of it down 
Hope this helps

h hammer on
p pull off
/ slide
X dead note


Here is some more of this song :)
If you have any questions or comments
email me at futice@yahoo.com


|---0----------------------|-----0--0---5--5---8--8------||-----1-3-------1-1-3-1-3-1|-----1--1---5--5--10-10--10--||-----------2--------------|-----2--2---5--5---9--9---9--||--------------------------|--------------------------7--||-------0------------------|-----0-------------8---------||-----------3---1-------0--|------------3-------------0--|
|---0----------------------|--------------------------------------------||-----1-3-------1-1-3-1-3-1|--------------------------------------------||-----------2--------------|-2p0h2--------------2---------1-------------||--------------------------|----------------2h3-------1h2---------------||-------0------------------|-----0---------------------------0--X-------||-----------3---1-------0--|--------0h3--0h1--------0-----------X---0h3-|
|---------------------|-0-------------------------||---------------------|---1-3---------1-1-3-1-3-1-||-------------2--1----|----------2----------------||---------2h3---------|---------------------------||-X-------------------|-----0-X----X--------------||-X---0p1--------0----|-------X--3-X--1-------0---|
|-0--0---5--5---8--8-|--------------0------------|-------------------| |-1--1---5--5--10-10-|-10-5-8-6------------------|-1-1-3-1-3-1-------| |-2--2---5--5---9--9-|----------9-7-------2------|-------------2p0h2-| |--------------------|---------------------------|-------------------| |-0-------------8----|--------------0-0-0--------|-----------------0-||--------3-----------|--------------------3-3-3--|-1-------0---------|
|------5-5--8-|-0------------------------|0-0--5-5---8--8---||------5-5-10-|---1-3--------1-1-3-1-3-1-|1-1--5-5--10-10---||------5-5--9-|---------2----------------|2-2--5-5---9--9---||--2---3-3--8-|--------------------------|------------------||0------------|-----0-X----X-------------|0----------8------||--3-3--------|-------X-3--X-1-------0---|-----3------------|
|--------------0--------|---------------|---------------2/5--2/5-||-10-5-8-6-------------1|1-3-1-3-1------|------------------------||----------9-7-----2----|----------2p0h2|------------------------||-----------------------|---------------|----2-------------------||--------------0-0------|--------------0|-0--------------------0-||------------------3-3-1|------0--------|----3-3-1-1-0-----------|
|----------------0-|----0-----------------|-----------0--5--8-||5-3-1-----1-1-3---|--3---3-1-----1-------|-----1---3----5-10-||------2-0---------|----------2-0---2-0---|-0-2---2------5--9-||------------------|--------------------2-|-------------------||------------------|----0-----------------|---0-------------8-||------3---1-----0-|--------3-----1-----0-|--------------3----|
|--0---0---0---0----------|-0-----------------------||----3---3---3------------|---1-3-------1-1-3-1-3-1-||-----------------2-2-----|---------2---------------||-------------------------|-------------------------||--0---0------------------|-----0-0-----------------||----------3---3----1-1-0-|---------3-3-1-------0---|
|-0-0--5-5--8--8-|--------------0--------------------||-1-1--5-5-10-10-|-10-5-8-6-------------1-1-3-1-3-1--||-2-2--5-5--9--9-|----------9-7-----2----------------||----------------|-----------------------------------||-0---------8----|--------------0-0------------------||------3---------|------------------3-3-1-------0----|
|-----------------||-----------------||-2---------------||------2----------||-0-0-------------||------3-3--1-1-0-|
Tap to rate this tab
 
# A B C D E F G H I J K L M N O P Q R S T U V W X Y Z