Ultimo De La Fila - Insurreccion tab

#----------------------------------PLEASE NOTE---------------------------------#
#This file is the author's own work and represents their interpretation of the #
#song. You may only use this file for private study, scholarship, or research. #
#------------------------------------------------------------------------------##

	INSURRECCION - El Ultimo de la Fila

___________________________________________________________

INTRODUCCION

---------------------------------------------------------|---------------------------------------------------------|---------------------------0---------2--0--2--2--0-------|----------2--------0---2--------3----3--3--3--3--3----2--|--3-------3---------------------3---------------------3--|--3-------3-------------------------------------------3--|
(Otra vez lo mismo) ESTROFA C F Donde estabas entonces C F cuando tanto te necesite... C F Nadie es mejor que nadie, C F pero tu creiste vencer C F Si llore ante tu puerta Em-G de nada sirvio C F C - F Barras de bar, vertederos de amor, C F C - F os ensene' mi trocito peor C - F Retales de mi vida, C - F fotos al contraluz ESTRIBILLO Me siento hoy, como un halcon
--3-----------5--3------1--------3------|--3--------3--3--3------1-----1--1------|--4---------------------2---------------|--5---------------------3---------------|--5---------------------3---------------|----------------------------------------|
herido por las flechas de la incertidumbre
--3-----------5--3------3--------1------|--3--------3--3--3------1-----1--1------|--4---------------------2---------------|--5---------------------3---------------|--5---------------------3---------------|----------------------------------------|
INTRODUCCION (dos veces, igual que antes) ESTROFA C F C F - C - F Me corto el pelo una y otra vez, Em-G me quiero defender... C F C - F Dame mi alma y dejame en paz, C F Em-G quiero intentar no volver a caer C - F Pequenas tretas, C F para continuar en la brecha ESTRIBILLO
--3-----------5--3------1--------3------|--3--------3--3--3------1-----1--1------|--4---------------------2---------------|--5---------------------3---------------|--5---------------------3---------------|----------------------------------------|
--3-----------5--3------3--------1------|--3--------3--3--3------1-----1--1------|--4---------------------2---------------|--5---------------------3---------------|--5---------------------3---------------|----------------------------------------|
Me siento hoy, como un halcon
--3-----------5--3------1--------3------|--3--------3--3--3------1-----1--1------|--4---------------------2---------------|--5---------------------3---------------|--5---------------------3---------------|----------------------------------------|
llamado a las filas de la insurreccion...
--3-----------5--3------3--------1------|--3--------3--3--3------1-----1--1------|--4---------------------2---------------|--5---------------------3---------------|--5---------------------3---------------|----------------------------------------|
FINAL
---------------------------------------------------------|---------------------------------------------------------|---------------------------0---------2--0--2--2--0-------|----------2--------0---2--------3----3--3--3--3--3----2--|--3-------3---------------------3---------------------3--|--3-------3-------------------------------------------3--|
------------------------------------------------------0--|------------------------------------------------------1--|---------------------------0---------2--0--2--2--0----0--|----------2--------0---2--------3----3--3--3--3--3----2--|--3-------3---------------------3---------------------3--|--3-------3-------------------------------------------3--|
Notas: - En las estrofas, el ritmo del rasgueo es muy particular. Lo mejor es escucharse bien la cancion. - En la segunda introduccion suena muy bien el acoplar la melodia de las cuerdas 4a y 5a con el rasgueo de la estrofa. Sugerencias, quejas o dudas: Juan Carlos Perez Barranco Serveis d'Informatica Universitat de Barcelona perez@fenix.ird.ub.es
Tap to rate this tab
 
# A B C D E F G H I J K L M N O P Q R S T U V W X Y Z