Unleashed - Shadows In The Deep tab

 B E A D F# B


|--------------------------------------------||--------------------------------------------||--------------------------------------------||--6-5/6-------------5-6-5/6-------------6/--||--4-3/4--3---6---3--3-4-3/4--3---6---3--4/--||---------1---4---1-----------1---4---1------|
|--------------------------||--------------------------||--------------------------||-----6-----6-----6--------||--3--4--5--4--6--4--5--6--||--1-----3-----4-----3--4--|
|----------------------------------||----------------------------------||----------------------------------||----------------------------------||------444-----444-----444---------||--111-----333-----444-----333-444-| ... ... ... ... ... ... ... ...
|----------------------------------------||----------------------------------------||----------------------------------------||----------------------------------------||-2--------2---------2---------2---------||-0-00-00--0--00-00--0--00-00--0--00-00--| . .. .. . .. .. . .. .. . .. ..
|------------------------------------------------||------------------------------------------------||------------------------------------------------||------------------------------------------------||-6--------6---------6---------6--------444777---||-4-44-44--4--44-44--4--44-44--4--44-44----------| . .. .. . .. .. . .. .. . .. .. ......
|---------------------------------|----------------------||---------------------------------|----------------------||---------6-------7---------------|----------------------||-------------------------6-------|----------------------||-4-44-44---44-44---44-44---44-44-|---------4h3h1-4h3h1--||---------------------------------|-0-00-00--------------| . .. .. .. .. .. .. .. .. . .. ..
|------------------------------------------||------------------------------------------||------------------------------------------||------------------------------------------||---------4h3h1-4h3h1---------4h3h1-4h3h1--||-0-00-00-------------0-00-00--------------| . .. .. . .. ..
|------------------------------------------||------------------------------------------||------------------------------------------||------------------------------------------||---------7h6h4-7h6h4---------7h6h4-7h6h4--||-4-44-44-------------4-44-44--------------| . .. .. . .. ..
|-------------------------------------------||-------------------------------------------||-------------------------------------------||-------------------------------------------||-------3---------3---------3---------3-----||-1-1-1-1---1-1-1-1---1-1-1-1---1-1-1-1-----| . . . . . . . . . . . . . . . .
|----------------------------------||----------------------------------||----------------------------------||----------------------------------||------444-----444-----444---------||--111-----333-----444-----333-444-| ... ... ... ... ... ... ... ...
|---------------------------------||---------------------------------||-----666-----666-----666---------||-333-----555-----666-----555666--||---------------------------------||---------------------------------| ... ... ... ... ... ... ......
|-----999-----999-----999---------||-666-----888-----999-----888999--||---------------------------------||---------------------------------||---------------------------------||---------------------------------| ... ... ... ... ... ... ......
|----------------------------------------||----------------------------------------||----------------------------------------||----------------------------------------||-2--------2---------2---------2---------||-0-00-00--0--00-00--0--00-00--0--00-00--| . .. .. . .. .. . .. .. . .. ..
|------------------------------------------------||------------------------------------------------||------------------------------------------------||------------------------------------------------||-6--------6---------6---------6--------444777---||-4-44-44--4--44-44--4--44-44--4--44-44----------| . .. .. . .. .. . .. .. . .. .. ......
|---------------------------------|----------------------||---------------------------------|----------------------||---------6-------7---------------|----------------------||-------------------------6-------|----------------------||-4-44-44---44-44---44-44---44-44-|---------4h3h1-4h3h1--||---------------------------------|-0-00-00--------------| . .. .. .. .. .. .. .. .. . .. ..
|------------------------------------------||------------------------------------------||------------------------------------------||------------------------------------------||---------4h3h1-4h3h1---------4h3h1-4h3h1--||-0-00-00-------------0-00-00--------------| . .. .. . .. ..
|------------------------------------------||------------------------------------------||------------------------------------------||------------------------------------------||---------7h6h4-7h6h4---------7h6h4-7h6h4--||-4-44-44-------------4-44-44--------------| . .. .. . .. ..
|---------------------------------------||---------------------------------------||---------------------------------------||--6-5/6-------------5-6-5-6------------||--4-3/4--3---6---3--3-4-3-4--3----(3)--||---------1---4---1-----------1----(1)--|
Tap to rate this tab
 
# A B C D E F G H I J K L M N O P Q R S T U V W X Y Z